Misc. Unsigned Bands - Autopilot - Green Text Guitar Tab

Learn the song with the online tablature player
Standard

Verse

e-------------------------|
B-------------------------|
G-------------------------|
D------------------5------|
A-5-5--5-5---5-5-0-3------|
E-3-3--3-3---3-3-0--------|

Chorus

e---------------------------------|
B---------------------------------|
G---------------------------------|
D-----------------3-3-3-3-3-3-3-3-|
A-3-3-3-3-3-3-3-3-1-1-1-1-1-1-1-1-|
E-1-1-1-1-1-1-1-1-----------------|