Misc. Unsigned Bands - Axl Hill - Excalibur Text Guitar Tab

Learn the song with the online tablature player
VERY FUN TAP INTRO AND GREAT SOUNDING RIFF

HAV A GO AND PLEASE RATE 5 STAR

INTRO/OUTRO
17-13-10-17-12-10-17-13-10-17-12-10-17-13-10-17-12-10-17-13-10-17-12-10-|
------------------------------------------------------------------------|
------------------------------------------------------------------------|
------------------------------------------------------------------------|
------------------------------------------------------------------------|
------------------------------------------------------------------------|

18-13-10-18-12-10-18-13-10-18-12-10-18-13-10-18-12-10-18-13-10-18-12-10-|
------------------------------------------------------------------------|
------------------------------------------------------------------------|
------------------------------------------------------------------------|
------------------------------------------------------------------------|
------------------------------------------------------------------------|

15-13-10-15-12-10-15-13-10-15-12-10-15-13-10-15-12-10-15-13-10-15-12-10-|
------------------------------------------------------------------------|
------------------------------------------------------------------------|
------------------------------------------------------------------------|
------------------------------------------------------------------------|
------------------------------------------------------------------------|

17-13-10-17-12-10-17-13-10-17-12-10-17-13-10-15-12-10-18-13-10-17-12-10-|
------------------------------------------------------------------------|
------------------------------------------------------------------------|
------------------------------------------------------------------------|
------------------------------------------------------------------------|
------------------------------------------------------------------------|

17-13-10-17-12-10-17-13-10-17-12-10-17-13-10-17-12-10-17-13-10-17-12-10-|
------------------------------------------------------------------------|
------------------------------------------------------------------------|
------------------------------------------------------------------------|
------------------------------------------------------------------------|
------------------------------------------------------------------------|

18-13-10-18-12-10-18-13-10-18-12-10-18-13-10-18-12-10-18-13-10-18-12-10-|
------------------------------------------------------------------------|
------------------------------------------------------------------------|
------------------------------------------------------------------------|
------------------------------------------------------------------------|
------------------------------------------------------------------------|

15-13-10-15-12-10-15-13-10-15-12-10-15-13-10-15-12-10-15-13-10-15-12-10-|
------------------------------------------------------------------------|
------------------------------------------------------------------------|
------------------------------------------------------------------------|
------------------------------------------------------------------------|
------------------------------------------------------------------------|

17-13-10-17-12-10-17-13-10-17-12-10-17-13-10-15-12-10-18-13-10-17-12-10-|
------------------------------------------------------------------------|
------------------------------------------------------------------------|
------------------------------------------------------------------------|
------------------------------------------------------------------------|
------------------------------------------------------------------------|

22-13-10-22-12-10-22-13-10-22-12-10-22-13-10-22-12-10-22-13-10-22-12-10-|
------------------------------------------------------------------------|
------------------------------------------------------------------------|
------------------------------------------------------------------------|
------------------------------------------------------------------------|
------------------------------------------------------------------------|

17-13-10-17-12-10-17-13-10-17-12-10-17-13-10-17-12-10-17-13-10-17-12-10-|
------------------------------------------------------------------------|
------------------------------------------------------------------------|
------------------------------------------------------------------------|
------------------------------------------------------------------------|
------------------------------------------------------------------------|

15-13-10-15-12-10-15-13-10-15-12-10-15-13-10-15-12-10-15-13-10-15-12-10-|
------------------------------------------------------------------------|
------------------------------------------------------------------------|
------------------------------------------------------------------------|
------------------------------------------------------------------------|
------------------------------------------------------------------------|

17-13-10-17-12-10-17-13-10-17-12-10-17-13-10-15-12-10-18-13-10-17-12-10-|
------------------------------------------------------------------------|
------------------------------------------------------------------------|
------------------------------------------------------------------------|
------------------------------------------------------------------------|
------------------------------------------------------------------------|

22-13-10-22-12-10-22-13-10-22-12-10-22-13-10-22-12-10-22-13-10-22-12-10-|
------------------------------------------------------------------------|
------------------------------------------------------------------------|
------------------------------------------------------------------------|
------------------------------------------------------------------------|
------------------------------------------------------------------------|

17-13-10-17-12-10-17-13-10-17-12-10-17-13-10-17-12-10-17-13-10-17-12-10-|
------------------------------------------------------------------------|
------------------------------------------------------------------------|
------------------------------------------------------------------------|
------------------------------------------------------------------------|
------------------------------------------------------------------------|

15-13-10-15-12-10-15-13-10-15-12-10-15-13-10-15-12-10-15-13-10-15-12-10-|
------------------------------------------------------------------------|
------------------------------------------------------------------------|
------------------------------------------------------------------------|
------------------------------------------------------------------------|
------------------------------------------------------------------------|

17-13-10-17-12-10-17-13-10-17-12-10-17-13-10-15-12-10-18-13-10-17-12-10-|
------------------------------------------------------------------------|
------------------------------------------------------------------------|
------------------------------------------------------------------------|
------------------------------------------------------------------------|
------------------------------------------------------------------------|

PALM MUTE AND RELEASE AT ^ NOTES

^         ^         ^         ^ ^ ^ ^ ^ ^ ^ ^ ^ ^
---------------------------------------------------|
---------------------------------------------------|
---------------------------------------------------| X2
---------------------------------------------------|
3---------5---------7---------8-7H8P7-5H7P5-3H5P2--|
3000000000500000000070000000008-7H8P7-5H7P5-3H5P2--|

---------------------------------------|
---------------------------------------|
---------------------------------------|
---------------------------------------|
3--3-333--2--2-222--5--5-555--0--0-000-|
3--3-333--2--2-222--5--5-555--0--0-000-|

VERSE

PALM MUTE AND RELEASE AT ^ NOTES

^         ^         ^         ^ ^ ^ ^ ^ ^ ^ ^ ^ ^
---------------------------------------------------|
---------------------------------------------------|
---------------------------------------------------| X4
---------------------------------------------------|
3---------5---------7---------8-7H8P7-5H7P5-3H5P2--|
3000000000500000000070000000008-7H8P7-5H7P5-3H5P2--|

PRE-CHORUS
-----------------|
-----------------|
-----------------| X2
-----------------|
7----8---5---5-8-|
5--5---5-3-3-3---|

CHORUS

----------------------------------------|
----------------------------------------|
----------------------------------------| X2
----------------------------------------|
3--3-333--2--2-222--5--5-555--0--0-000--|
3--3-333--2--2-222--5--5-555--0--0-000--|

----------------------------------------------------------|
----------------------------------------------------------|
----------------------------------------------------------|
----------------------------------------------------------|
3333333333333333222222222222222255555555555555550----3/12-|
3333333333333333222222222222222255555555555555550----3/12-|

BRIDGE

17-3-10-17-12-10-17-13-10-17-12-10-17-13-10-17-12-10-17-13-10-17-12-10--|
------------------------------------------------------------------------|
------------------------------------------------------------------------|
------------------------------------------------------------------------|
------------------------------------------------------------------------|
------------------------------------------------------------------------|

18-13-10-18-12-10-18-13-10-18-12-10-18-13-10-18-12-10-18-13-10-18-12-10-|
------------------------------------------------------------------------|
------------------------------------------------------------------------|
------------------------------------------------------------------------|
------------------------------------------------------------------------|
------------------------------------------------------------------------|

15-13-10-15-12-10-15-13-10-15-12-10-15-13-10-15-12-10-15-13-10-15-12-10-|
------------------------------------------------------------------------|
------------------------------------------------------------------------|
------------------------------------------------------------------------|
------------------------------------------------------------------------|
------------------------------------------------------------------------|

17-13-10-17-12-10-17-13-10-17-12-10-17-13-10-17-12-10-17-13-10-17-12-10-|
------------------------------------------------------------------------|
------------------------------------------------------------------------|
------------------------------------------------------------------------|
------------------------------------------------------------------------|
------------------------------------------------------------------------|

FORMATION

INTRO
VERSE
PRE-CHORUS
CHORUS
TRANSITION
VERSE
PRE-CHORUS
CHORUS
TRANSITION
VERSE
PRE-CHORUS
CHORUS
CHORUS
OUTRO

AND ONCE AGAIN THANKYOU TO KIRSTY ESA FOR BEING MY CONSTANT INSPIRATION

AND PLEASE RATE 5*