Misc. Unsigned Bands - Babalot - Panca Bestia Text Guitar Tab

Learn song with the online tabulature player
-------------------------------------------------------------------------------
                             PANCA BESTIA - Babalot
-------------------------------------------------------------------------------
Tabbed by: Francesco Vigiano
Email: rebo.reboscio@hotmail.it

Tuning: Standard

e|----------------------------------------------|
B|--12-10---------------------------------------|
G|--------12-11-9--------------------9--12------|
D|----------------12-10-9----9-10-12------------|
A|------------------------12--------------------|
E|----------------------------------------------|

e|----------------------------------------------|
B|----------12-10--------------------12---------|
G|--9-11-12-------12-11-9----9-11-12----12--11--|
D|------------------------12--------------------|
A|----------------------------------------------|
E|----------------------------------------------|

e|----------------------------------------------|
B|--12-10---------------------------------------|
G|--------12-11-9--------------------9--12------|
D|----------------12-10-9----9-10-12------------|
A|------------------------12--------------------|
E|----------------------------------------------|

e|----------------------------------------------|
B|----------12-10-------------------------------|
G|--9-11-12-------12-11-9-8--9------------------|
D|----------------------------------------------|
A|----------------------------------------------|
E|----------------------------------------------|