Misc. Unsigned Bands - Barricade - Highlander Text Guitar Tab

Learn song with the online tabulature player
Verse
guitar sounds like a bass
slide from 7-10
|--------------|--------------|--------------|-------------------| 
|--------------|--------------|--------------|-------------------| 
|--------------|--------------|--------------|-------------------| 
|7-7-7---10-10-|10---5-5--3333|--------------|-------------------| 
|7-7-7---10-10-|10---5-5--3333|--------------|-------------------| 
|7-7-7---10-10-|10---5-5--3333|--------------|-------------------| 
chorus
slide from 7-10
|--------------|--------------|--------------|-------------------| 
|--------------|--------------|--------------|-------------------| 
|--------------|--------------|--------------|-------------------| 
|--------------|--------------|--------------|-------------------| 
|--------------|--------------|--------------|-------------------| 
|7-7-7---10-10-|10---5-5--3333|--------------|-------------------|