Misc. Unsigned Bands - Bears Eat Me - Pedestal Text Guitar Tab

Learn song with the online tabulature player
BEARS EAT ME

PEDESTAL

DROP D

VERSE1
CHORUS
MINI SOLO1
MINI SOLO2
VERSE2
BUILD UP1
CHORUS
BUILD UP2
BREAKDOWN
GROOVE SECTION
CHORUS
DRUM BUILD UP
CHORUS

The rhythm patterns are very important.

VERSE 1
|-----------------------------------------------|
|-----------------------------------------------|
|-----------------------------------------------|
|-5/7-7-7-7-7-7-7-7-5~---5/7-7-7-7-7-7-7-7-5~---|
|-3/5-5-5-5-5-5-5-5-3~---3/5-5-5-5-5-5-5-5-3~---|
    "EVERY SINGLE DAY I HOPE FOR ANOTHER"
|-----------------------------------------------|
|-----------------------------------------------|
|-----------------------------------------------|
|-5/7-7-7-7-7-7-7-7-5~---5/7-7-7-7-7-7-7-7-7-7-7|
|-3/5-5-5-5-5-5-5-5-3~---3/5-5-5-5-5-5-5-5-5-5-5|
|-----------------------------------------------|
|-----------------------------------------------|

CHORUS 2x
|---------------------------------------------------------|
|---------------------------------------------------------|
|---------------------------------------------------------|
|-7---7---7-7-7-10--1010--101010109---9---9-9-9-9-5---5---|
|-5---5---5-5-5-8---8-8---8-8-8-8-7---7---7-7-7-7-3---3---|
|---------------------------------------------------------|
            "WAKE     UP     OPEN YOUR EYES"
MINI SOLO1 2x
|---------------------------------------------------------|
|---------------------------------------------------------|
|---------2---------------2---------------2---------------|
|-----3-5---5-3-5-----3-5---5-3-5-----3-5---5-3h5---3-----|
|-3-5-------------3-5-------------3-5-----------------5-3-|
|---------------------------------------------------------|
 
MINI SOLO2 (A BIT FASTER THAN SHOWN)
|---------------------------------------------------------|
|---------------------------------------------------------|
|---------------------------------------------------------|
|-------0h3h5-0h5h7-0h3h5-------0h3h5-0h5h7-0h3h5---------|
|-0h3h5-------------------0h3h5---------------------------|
|---------------------------------------------------------|

|---------------------------------------------------------|
|---------------------------------------------------------|
|---------------------------------------------------------|
|-------0h3h5-0h5h7-0h3h5-----3---------------------------|
|-0h3h5---------------------------5---3-------------------|
|---------------------------------------------------------|


VERSE 2 (SAME AS VERSE 1)
|-----------------------------------------------|
|-----------------------------------------------|
|-----------------------------------------------|
|-5/7-7-7-7-7-7-7-7-5~---5/7-7-7-7-7-7-7-7-5~---|
|-3/5-5-5-5-5-5-5-5-3~---3/5-5-5-5-5-5-5-5-3~---|

|-----------------------------------------------|
|-----------------------------------------------|
|-----------------------------------------------|
|-5/7-7-7-7-7-7-7-7-5~---5/7-7-7-7-7-7-7-7-7-7-7|
|-3/5-5-5-5-5-5-5-5-3~---3/5-5-5-5-5-5-5-5-5-5-5|
|-----------------------------------------------|
|-----------------------------------------------|

BUILD-UP1 2x
|-----------------------------------------------|
|-----------------------------------------------|
|-----------------------------------------------|
|-0~~~~~~~~~~~~~~~~~~----0~~~~~~~~~~~~~~~~~~----|
|-0~~~~~~~~~~~~~~~~~~----0~~~~~~~~~~~~~~~~~~----|
|-0~~~~~~~~~~~~~~~~~~----0~~~~~~~~~~~~~~~~~~----|

CHORUS 2x
|---------------------------------------------------------|
|---------------------------------------------------------|
|---------------------------------------------------------|
|-7---7---7-7-7-10--1010--101010109---9---9-9-9-9-5---5---|
|-5---5---5-5-5-8---8-8---8-8-8-8-7---7---7-7-7-7-3---3---|
|---------------------------------------------------------|

BUILD UP2 2x
|-----------------------------------------------|
|-----------------------------------------------|
|-----------------------------------------------|
|-7~~~~~~~~~~~~~~~~~~~~~~7~~~~~~~~~~~~~~~~~~~~~~|
|-5~~~~~~~~~~~~~~~~~~~~~~5~~~~~~~~~~~~~~~~~~~~~~|
|-----------------------------------------------|

BREAK DOWN 2x (TRIPLETS FASTER THAN SHOWN
|-------------------------------------------------------|
|-------------------------------------------------------|
|-------------------------------------------------------|
|121212-121212-121212-121212-121212-121212-121212-121212|
|121212-121212-121212-121212-121212-121212-121212-121212|
|121212-121212-121212-121212-121212-121212-121212-121212|
 |-------------------------PM--------------------------|

|-------------------------------------------------------|
|-------------------------------------------------------|
|-------------------------------------------------------|
|121212-121212-121212-121212-121212-121212-12-----12----|
|121212-121212-121212-121212-121212-121212-12-----12----|
|121212-121212-121212-121212-121212-121212-12-----12----|
 |-------------------PM------------------|

GROOVE SECTION 
FIRST HALF 2x
|---------------------------------------------|
|---------------------------------------------|
|---------------------------------------------|
|12---12-12-12-12-12---12-12-12-12-12---12-12-|
|12---12-12-12-12-12---12-12-12-12-12---12-12-|
|12---12-12-12-12-12---12-12-12-12-12---12-12-|
      |---PM----|      |----PM---|      |-PM-|
|---------------------------------------------|
|---------------------------------------------|
|---------------------------------------------|
|10---10-10-10-10-10---10-10-10-10-10---10-10-|
|10---10-10-10-10-10---10-10-10-10-10---10-10-|
|10---10-10-10-10-10---10-10-10-10-10---10-10-|
      |---PM----|      |----PM---|      |-PM-|
 
GROOVE SECTION
SECOND HALF 2x
|-----------------------------------------------|
|-----------------------------------------------|
|-----------------------------------------------|
|12---12-12-12-12-12---121212-121212-12---12-12-|
|12---12-12-12-12-12---121212-121212-12---12-12-|
|12---12-12-12-12-12---121212-121212-12---12-12-|
      |---PM----|      |-----PM----|      |-PM-|

|-----------------------------------------------|
|-----------------------------------------------|
|-----------------------------------------------|
|10---10-10-10-10-10---101010-101010-10---10-10-|
|10---10-10-10-10-10---101010-101010-10---10-10-|
|10---10-10-10-10-10---101010-101010-10---10-10-|
      |---PM----|      |-----PM-----|     |-PM-|

CHORUS 2x
|---------------------------------------------------------|
|---------------------------------------------------------|
|---------------------------------------------------------|
|-7---7---7-7-7-10--1010--101010109---9---9-9-9-9-5---5---|
|-5---5---5-5-5-8---8-8---8-8-8-8-7---7---7-7-7-7-3---3---|
|---------------------------------------------------------|

HOLD POWER CHORD ON 5TH STRING 5TH FRET INTO THE DRUM BUILD UP

DRUM BUILD UP 
COUNT TO 8 FOUR TIMES

CHORUS 2x
|---------------------------------------------------------|
|---------------------------------------------------------|
|---------------------------------------------------------|
|-7---7---7-7-7-10--1010--101010109---9---9-9-9-9-5---5---|
|-5---5---5-5-5-8---8-8---8-8-8-8-7---7---7-7-7-7-3---3---|
|---------------------------------------------------------|

THAT'S IT!