Misc. Unsigned Bands - Beeyah - Legacy Text Guitar Tab

Learn song with the online tabulature player
This is my first tab, and it is song i wrote for my band. We are an up and rock band 
the Seattle Washington area and we hope you like it.

*please note this is not the complete song and is ment to be played with a heavy drive 
everything except the intro*

Song strarts slowly with amp turned down
---------------------------------|
---------------------------------|
---------------------------------|
---------------------------------|
---3------3----4----3-----2------|
-1-----1-----1----1----1----1/4--|

Song speeds up and amp is turned high
-------------------------------------------------------------------------|
-------------------------------------------------------------------------|
-------------------------------------------------------------------------|
-------------------------------------------------------------------------|
-5-5-5----------5-5-5-------------3---5-5-5------------------------------|
-3-3-3-3pm-3pm--3-3-3-3pm-3pm-3-5---5-3-3-3-3pm-3pm--3pm-3pm--3pm-3pm----|

*pause for about three seconds and then repeat twice afther that play very fast:

-------------------------------------------------------------------------|
-------------------------------------------------------------------------|
-------------------------------------------------------------------------|
---------------------------------------9---9------10---11---11---11--11--|
-----1pm-----1pm---------1pm---------7---7---10pm-10----9----9----9---9--|
-1pm-1pm-1pm-1pm-1pm-1pm-1pm-1pm-1/5-------------------------------------|


Thank you for looking at our tab we will update later this month and we will expand the 
so it is complete and we will includes vocals and bass.
Also we wanted you to understand that both guitars play this at the same time as we do 
have a rythm guitar, although we might up date it in the future so that one of the 
is different.