Misc. Unsigned Bands - Bela Valore - Breach Text Guitar Tab

Learn the song with the online tablature player
D-5---5---5---5-5------------|
A-3---3---3---3-3------------|
F-2---2---3---5-5------------|
C---0---0---0----------------|
G---0---0---0----------------|
C---0---0---0----------------|

D------------------------|
A------------------------|
F------------8-----------|
C-12-10-8-9--x-----------|
G-12-10-8-7--6-----------|
C-12-10-8-6--------------|

D----------------------------------------------------|
A----------------------------------------------------|
F----------------------------------------------------|
C-0-0300-0-00-0-00-00-0-00-555-555-555555-888-888-88-|
G-0-0300-0-00-0-00-00-0-00-555-555-555555-888-888-88-|
C-0-0300-0-00-0-00-00-0-00-555-555-555555-888-888-88-|

D---------------------------------|
A----6----------------------------|
F--9--9----or-----5---------------|
C-7-7--7--------5--5--------------|
G--------------8-8--8-------------|
C---------------------------------|