Misc. Unsigned Bands - Beloved And Hatred - Before Weeping Text Guitar Tab

Learn the song with the online tablature player
------------------------------------------|
------------------------------------------|
------------------------------------------|
------------------------------------------|
---8---7---5---7---5---7--5h7p5---3---0---|
------------------------------------------|

------------------------------------------|
------------------------------------------|
------------------------------------------|
------------------------------------------|
---8---7---5---7---5---7--5h7p5---3---0---|
------------------------------------------|

e|--------------------------------------------------------------------------|
B|------6---6/8---8/9-------------------------------------------------------|
G|------7---7/9---9/10------------------------------------------------------|
D|--0------------------------8-8-----7h10p7-----------7---------------------|
A|--0--------------------8-8-----8----------8--7---7-----7---5---7---7---5--|
E|--------------------------------------------------------------------------|