Misc. Unsigned Bands - Ben Loncle Soul - Seven Nation Army Text Guitar Tab

Learn song with the online tabulature player
Verse
|------------------|
|------------------|
|------------------|
|------------------|
|-7--7-10-7-5-3--2-|
|------------------| X 12

Then the jazz guitar starts playing Em, C and B
just try it

Post Chorus
|---------------------------------|
|---------------------------------|
|---------------------------------|
|-5-5-5-5-5-5-5-5-7-7-7-7-7-7-7-7-|
|-5-5-5-5-5-5-5-5-7-7-7-7-7-7-7-7-|
|-3-3-3-3-3-3-3-3-5-5-5-5-5-5-5-5-|