Misc. Unsigned Bands - Ben Lowrey - 12 Bar Bluesrock Text Guitar Tab

Learn the song with the online tablature player
                             12 Bar Blues/Rock – Ben Lowrey

     A
e|-----------------------------|
B|-----------------------------|
G|-----------------------------|
D|--2--2--4--2----2--2--4--2---|
A|--0--0--0--0----0--0--0--0---|
E|-----------------------------|

     B
e|-----------------------------|
B|-----------------------------|
G|--2--2--4--2----2--2--4--2---|
D|--0--0--0--0----0--0--0--0---|
A|-----------------------------|
E|-----------------------------|

     C
e|-----------------------------|
B|-----------------------------|
G|-----------------------------|
D|-----------------------------|
A|--2--2--4--2----2--2--4--2---|
E|--0--0--0--0----0--0--0--0---|

Now, the orders of these riffs are:

Riff A x 4
Riff B x 2
Riff A x 2
Riff C x 1
Riff B x 1
Riff A x 1
Riff C x 1

You can also play it in different styles. To play it in a rock style, play it fast and
play it in a blues style, play it slower!
Enjoy!!!