Misc. Unsigned Bands - Ben Weasel And His Iron String Quartet - Let Freedom Ring Text Guitar Tab

Learn the song with the online tablature player
E||--5-----------------------------|--7-5-----------5------------|
B||-----8-7-5-7-8-7----5-7-8-7-5---|------8-7-5-7-8---8-7--------|
G||------------------7-----------7-|-----------------------------|
D||--------------------------------|-----------------------------|
A||--------------------------------|-----------------------------|
E||--------------------------------|-----------------------------|

--5-----------------------------|--7-5-----5------------------||
-----8-7-5-7-8-7----5-7-8-7-5---|------8-7---8-7-5------------||
------------------7-----------7-|------------------7----------||
--------------------------------|-----------------------------||
--------------------------------|-----------------------------||
--------------------------------|-----------------------------||