Misc. Unsigned Bands - Better Dressed Than Adam - Miles And Miles Text Guitar Tab

Learn the song with the online tablature player
Intro

Guitar 1 silent, Guitar 2
e------------------------------|
b------------------------------|
g-99----------99---------------|
d-99-99-77-99-99-99-55-77------|
a-77-99-77-99-77-99-55-77------|
E----77-55-77----77-33-55------|

Pre-verse

Guitar 2 (same as intro)
Guitar 1
e------------------------------|
b------------------------------|
g-9-77-12-14-9-77-16-14--------|
d-x-xx-x--x--x-x--x--x---------|
a-7-55-10-12-7-55-14-12--------|
E------------------------------|

e------------------------------|
b------------------------------|
g-9-77-12-14-1212-10-12-141414-|
d-x-xx-x--x--x-x--x--x--x—x-x--|
a-7-55-10-12-1010-8--10-121212-|
E------------------------------|

Verse

Guitar 1 and 2
e---------------|
b---------------|
g-99------------|
d-99—x8---------|
a-77------------|
E---------------|

Chorus

Guitar 1
e-7-7-7-7-8-8-8-8-------------------|
b-8-8-8-8-8-8-8-8-------------------|
g-9-9-9-9-9-9-9-9--10-12-1414141414-|
d-9-9-9-9-10101010-x--x--x-x-x-x-x--|
a-7-7-7-7-10101010-8--10-1212122112-|
E---------8-8-8-8-------------------|

Guitar 2
e-----------------------------------|
b-----------------------------------|
g-9-9-9-9-5-5-5-5---------7-7-7-7---|
d-9-9-9-9-5-5-5-5-5-5-5-5-7-7-7-7---|
a-7-7-7-7-3-3-3-3-5-5-5-5-5-5-5-5---|
E-----------------3-3-3-3-----------|

Repeat all parts from Pre-verse

Outro

Guitar 1 and 2
e---------|
b---------|
g-0-~-----|
d-2-~-----|
a-2-~-----|
E-0-~-----|