Misc. Unsigned Bands - Beware - All Aboard Text Guitar Tab

Learn the song with the online tablature player
Guitar Riff 1:
E:------------------------------|
B:------------------------------|
G:---5h7----------5h7-----------|
D:-------7--5-5-------7-5-------|
A:------------------------7-5---|
D:------------------------------|

Guitar Riff 2:
E:------------------------------------------|
B:------------------------------------------|
G:--11-14-13-11---11-14-13-11-------13-14---|
D:----------------------------13-11---------|
A:------------------------------------------|
D:------------------------------------------|