Misc. Unsigned Bands - Big B - Addicted Text Guitar Tab

Learn song with the online tabulature player
e|--------------|--------0---|
B|---1p0--0-1---|---4p1---1--|
G|--2---2-------|--0---0-----|
D|-2-----2--(x3)|-2-----2----|
A|0-------------|3-----------|
E|--------------|------------|


e|------------|
B|1----1------|
G|2----0------|
D|2----2------|
A|0----3------| these 2 chords through the chorus the rest is just the intro 
E|------------| repeated 

its nothing great and im pretty sure no1 will use this, but im trying to figure out the rest right now :)