Misc. Unsigned Bands - Big Johnn Khatt And The Highland Blues Band - Mamas Little Baby Text Guitar Tab

Learn the song with the online tablature player
Mama's Little Baby:Big John Khatt
And The Highland Blues Band...2010.

(This song was written in 1900 and
has been recorded a myraid of times
in the last 110 years.)

------------------------------------------------------------|
------------------------------------------------------------|
------------------------------------------------------------|
---------4-4--2-2--4---4-2-4---------4-4--2-2--4------------|
---0-0---------------0----------0-0---------------4-2-0-----|
------------------------------------------------------------|
------------------------------------------------------------|
------------------------------------------------------------|
------------------------------------------------------------|
---------4-4--2-2--4---4-2-4---------4-4--2-2--4------------|
---0-0---------------0----------0-0---------------4-2-0-----|
------------------------------------------------------------|

BREAK
------------------------------------------------------------|
------------------------------------------------------------|
--2-2-------------2-2----------2-2--------------------------|
-------4-4-2-4---------4-4-2--------4-4-2-2-4---------------|
------------------------------------------------4-2-0-------|
------------------------------------------------------------|

------------------------------------------------------------|
------------------------------------------------------------|
--2-2-------------2-2----------2-2--------------------------|
-------4-4-2-4---------4-4-2--------4-4-2-2-4---------------|
------------------------------------------------4-2-0-------|
------------------------------------------------------------|

------------------------------------------------------------|
------------------------------------------------------------|
------------------------------------------------------------|
---------4-4--2-2--4---4-2-4---------4-4--2-2--4------------|
---0-0---------------0----------0-0---------------4-2-0-----|
------------------------------------------------------------|
------------------------------------------------------------|
------------------------------------------------------------|
----------------------------------------------------2-4-2---|
---------4-4--2-2--4----4-2-4---------4-4--2-2--4-----------|
---0-0---------------0----------0-0-------------------------|
------------------------------------------------------------|

An oldies smash from Kraziekhat.