Misc. Unsigned Bands - Birth Of A Tyrant - Below The Well Text Guitar Tab

Learn the song with the online tablature player
Birth Of A Tyrant - Below The Well

E|------------------------------------------------------------|
B|------------------------------------------------------------|
G|------------------------------------------------------------|
D|--0--0-------------------------0--0-------------------------|
A|--0--0--8--7--8--10--8--7h8r7--0--0--8--7--8--10--8--7h8r7--|
E|--0--0-------------------------0--0-------------------------|

E|-----------------------------------------------------------|
B|-----------------------------------------------------------|
G|-----------------------------------------------------------|
D|--8--8-------------------------7--7----------5--5----------|
A|--8--8--8--7--8--10--8--7h8r7--7--7--8--7h8--5--5--8--7h8--|
E|--8--8-------------------------7--7----------5--5----------|  both lines x2

E|-----
B|-----
G|-----
D|--0--
A|--0--
E|--0--

E|------------------------|
B|------------------------|
G|------------------------|
D|-0-0-0-0-0---0-0-0-0-0--|
A|-0-0-0-0-0---0-0-0-0-0--|
E|-1-1-1-1-1---1-1-1-1-1--|  x4
   . . . . .   . . . . .

E|------------------------|
B|------------------------|
G|------------------------|
D|-0-0-0-0-0---0-0-0-0-0--|
A|-0-0-0-0-0---0-0-0-0-0--|
E|-0-0-0-0-0---0-0-0-0-0--|  x4
   . . . . .   . . . . .

E|-----
B|-----
G|-----
D|--0--
A|--0--
E|--0--
    .

E|--------------------------|
B|444444444444444444444444--|
G|777777777777777777777777--|
D|--------------------------|
A|--------------------------|
E|--------------------------| x2

E|--------------------------|
B|666666666666666666666666--|
G|999999999999999999999999--|
D|--------------------------|
A|--------------------------|
E|--------------------------| x2

E|-----
B|-----
G|-----
D|--0--
A|--0--
E|--0--
    .

E|------------------------|
B|------------------------|
G|------------------------|
D|-0-0-0---0-0-0---0-0-0--|
A|-0-0-0---0-0-0---0-0-0--|
E|-1-1-1---1-1-1---1-1-1--|  x4
   . . .   . . .   . . .

E|-----------------------------------------------------------|
B|-----------------------------------------------------------|
G|-----------------------------------------------------------|
D|--0--0-------------------------0--0----------0--0----------|
A|--0--0--8--7--8--10--8--7h8r7--0--0--8--7h8--0--0--8--7h8--|
E|--0--0-------------------------0--0----------0--0----------|  x2

E|-----------------------------------------------------------|
B|-----------------------------------------------------------|
G|-----------------------------------------------------------|
D|--0--0-------------------------8--8----------7--7----------|
A|--0--0--8--7--8--10--8--7h8r7--8--8--8--7h8--7--7--8--7h8--|
E|--0--0-------------------------8--8----------7--7----------|  x2

E|-------------------------------------------------------|
B|-------------------------------------------------------|
G|-------------------------------------------------------|
D|00000000-0-0-00000000-0-0-0-0-00000000-0-0-00000000-0--|
A|00000000-0-0-00000000-0-0-0-0-00000000-0-0-00000000-0--|
E|00000000-0-0-00000000-0-0-0-0-00000000-0-0-00000000-0--|
  ........ . . ........ . . . . ........ . . ........ .

E|-------------------------------------------------------|
B|-------------------------------------------------------|
G|-------------------------------------------------------|
D|00000000-0-0-00000000-0-0-0-0-00000000-0-0-00000000-0--|
A|00000000-0-0-00000000-0-0-0-0-00000000-0-0-00000000-0--|
E|11111111-1-1-11111111-1-1-1-1-11111111-1-1-11111111-1--|  x2
  ........ . . ........ . . . . ........ . . ........ .

E|-------------------------------------------------------|
B|-------------------------------------------------------|
G|-------------------------------------------------------|
D|00000000-0-0-00000000-0-0-0-0-00000000-0-0-00000000-0--|
A|00000000-0-0-00000000-0-0-0-0-00000000-0-0-00000000-0--|
E|00000000-0-0-00000000-0-0-0-0-00000000-0-0-00000000-0--|  x2
  ........ . . ........ . . . . ........ . . ........ .

E|-----
B|-----
G|-----
D|--0--
A|--0--
E|--0--
    .