Misc. Unsigned Bands - Black Blood Cells - Mortal Kombat Text Guitar Tab

Learn the song with the online tablature player
     E  E  E  E  E  E  E  E     E  E  E  E  E  E  E  E
E||--------------------0-----|--------0-----3-----0-----|
B||--------1-----3--------3--|--1--1-----1-----1-----1--|
G||--2--2-----2-----2--------|--------------------------|
D||--------------------------|--------------------------|
A||--------------------------|--------------------------|
D||--------------------------|--------------------------|

  E  E  E  E  E  E  E  E     E  E  E  E  E  E  E  E
--------------------------|--------------------------|
--------0-----1-----3--1--|--------------1-----1--0--|
--0--0-----0-----0--------|--------2-----------------|
--------------------------|--3--3-----3-----3--------|
--------------------------|--------------------------|
--------------------------|--------------------------|

  E  E  E  E  E  E  E  E     E  E  E  E  E  E  E  E
--------------------0-----|--------0-----3-----0-----|
--------1-----3--------3--|--1--1-----1-----1-----1--|
--2--2-----2-----2--------|--------------------------|
--------------------------|--------------------------|
--------------------------|--------------------------|
--------------------------|--------------------------|

  E  E  E  E  E  E  E  E     E  E  E  E  E  E  E  E
--------------------------|--------------------------|
--------0-----1-----3--1--|--------------1-----1--0--|
--0--0-----0-----0--------|--------2-----------------|
--------------------------|--3--3-----3-----3--------|
--------------------------|--------------------------|
--------------------------|--------------------------|

  E  E  E  E  E  E  E  E     E  E  E  E  E  E  E  E
--------------------0-----|--------0-----3-----0-----|
--------1-----3--------3--|--1--1-----1-----1-----1--|
--2--2-----2-----2--------|--------------------------|
--------------------------|--------------------------|
--------------------------|--------------------------|
--------------------------|--------------------------|

  E  E  E  E  E  E  E  E     E  E  E  E  E  E  E  E     W
--------------------------|--------------------------|-------------------|
--------0-----1-----3--1--|--------------1-----1--0--|-------------------|
--0--0-----0-----0--------|--------2-----------------|-------------------|
--------------------------|--3--3-----3-----3--------|-------------------|
--------------------------|--------------------------|-------------------|
--------------------------|--------------------------|-------------------|

   E    E    E    E    E   E      E    E    E    E    E  E
------------------------------|-----------------------------|
------------------------------|-----------------------------|
------------------------------|-----------------------------|
--12---12---12---12---10--15--|--12---12---12---12---10--7--|
--12---12---12---12---10--15--|--12---12---12---12---10--7--|
--12---12---12---12---10--15--|--12---12---12---12---10--7--|

   E.   E.   E.   E.   E   E      E.   E.   E.   S  S S Q
------------------------------|------------------------------|
------------------------------|------------------------------|
------------------------------|------------------------------|
--12---12---12---12---10--15--|--12---12---12---12-12--------|
--12---12---12---12---10--15--|--12---12---12---12-12--------|
--12---12---12---12---10--15--|--12---12---12---12-12--------|

   E    E    E    E    E   E      E    E    E    E    E  E
------------------------------|-----------------------------|
------------------------------|-----------------------------|
------------------------------|-----------------------------|
--12---12---12---12---10--15--|--12---12---12---12---10--7--|
--12---12---12---12---10--15--|--12---12---12---12---10--7--|
--12---12---12---12---10--15--|--12---12---12---12---10--7--|

   E.   E.   E.   E.   E   E      E.   E.   E.   S  S S Q
------------------------------|------------------------------|
------------------------------|------------------------------|
------------------------------|------------------------------|
--12---12---12---12---10--15--|--12---12---12---12-12--------|
--12---12---12---12---10--15--|--12---12---12---12-12--------|
--12---12---12---12---10--15--|--12---12---12---12-12--------|

  E  E  E  E  E  E  E  E      E   E   E   E   E   E   E   E
--------------------------|----------------------------------|
--------------------------|----------------------------------|
--7--7--7--7--7--7--7--7--|--10--10--10--10--10--10--10--10--|
--5--5--5--5--5--5--5--5--|---8---8---8---8---8---8---8---8--|
--5--5--5--5--5--5--5--5--|---8---8---8---8---8---8---8---8--|
--5--5--5--5--5--5--5--5--|---8---8---8---8---8---8---8---8--|

                                     PM PM PM PM PM PM PM PM
   E   E   E   E   E   E   E   E     E  E  E  E  E  E  E  E
----------------------------------|--------------------------|
----------------------------------|--------------------------|
--12--12--12--12--12--12--12--12--|--------------------------|
--10--10--10--10--10--10--10--10--|--------------------------|
--10--10--10--10--10--10--10--10--|--0--0--0--0--0--0--0--0--|
--10--10--10--10--10--10--10--10--|--0--0--0--0--0--0--0--0--|

  E  E  E  E  E  E  E  E      E   E   E   E   E   E   E   E
--------------------------|----------------------------------|
--------------------------|----------------------------------|
--7--7--7--7--7--7--7--7--|--10--10--10--10--10--10--10--10--|
--5--5--5--5--5--5--5--5--|---8---8---8---8---8---8---8---8--|
--5--5--5--5--5--5--5--5--|---8---8---8---8---8---8---8---8--|
--5--5--5--5--5--5--5--5--|---8---8---8---8---8---8---8---8--|

   E   E   E   E   E   E   E   E     E  E  E  E  E  E  E  E
----------------------------------|--------------------0-----|
----------------------------------|--------1-----3--------3--|
--12--12--12--12--12--12--12--12--|--2--2-----2-----2--------|
--10--10--10--10--10--10--10--10--|--------------------------|
--10--10--10--10--10--10--10--10--|--------------------------|
--10--10--10--10--10--10--10--10--|--------------------------|

  E  E  E  E  E  E  E  E     E  E  E  E  E  E  E  E
--------0-----3-----0-----|--------------------------|
--1--1-----1-----1-----1--|--------0-----1-----3--1--|
--------------------------|--0--0-----0-----0--------|
--------------------------|--------------------------|
--------------------------|--------------------------|
--------------------------|--------------------------|

  E  E  E  E  E  E  E  E     E  E  E  E  E  E  E  E
--------------------------|--------------------0-----|
--------------1-----1--0--|--------1-----3--------3--|
--------2-----------------|--2--2-----2-----2--------|
--3--3-----3-----3--------|--------------------------|
--------------------------|--------------------------|
--------------------------|--------------------------|

  E  E  E  E  E  E  E  E     E  E  E  E  E  E  E  E
--------0-----3-----0-----|--------------------------|
--1--1-----1-----1-----1--|--------0-----1-----3--1--|
--------------------------|--0--0-----0-----0--------|
--------------------------|--------------------------|
--------------------------|--------------------------|
--------------------------|--------------------------|

  E  E  E  E  E  E  E  E      E    E    E    E    E   E
--------------------------|------------------------------|
--------------1-----1--0--|------------------------------|
--------2-----------------|------------------------------|
--3--3-----3-----3--------|--12---12---12---12---10--15--|
--------------------------|--12---12---12---12---10--15--|
--------------------------|--12---12---12---12---10--15--|

   E    E    E    E    E  E      E    E    E    E    E   E
-----------------------------|------------------------------|
-----------------------------|------------------------------|
-----------------------------|------------------------------|
--12---12---12---12---10--7--|--12---12---12---12---10--15--|
--12---12---12---12---10--7--|--12---12---12---12---10--15--|
--12---12---12---12---10--7--|--12---12---12---12---10--15--|

   E.   E.   E.   S  S S Q        E.   E.   E.   E.   E   E
------------------------------|------------------------------|
------------------------------|------------------------------|
------------------------------|------------------------------|
--12---12---12---12-12--------|--12---12---12---12---10--15--|
--12---12---12---12-12--------|--12---12---12---12---10--15--|
--12---12---12---12-12--------|--12---12---12---12---10--15--|

   E    E    E    E    E  E      E    E    E    E    E   E
-----------------------------|------------------------------|
-----------------------------|------------------------------|
-----------------------------|------------------------------|
--12---12---12---12---10--7--|--12---12---12---12---10--15--|
--12---12---12---12---10--7--|--12---12---12---12---10--15--|
--12---12---12---12---10--7--|--12---12---12---12---10--15--|

   E.   E.   E.   S  S S Q       E  E  E  E  E  E  E  E
------------------------------|--------------------------|
------------------------------|--------------------------|
------------------------------|--7--7--7--7--7--7--7--7--|
--12---12---12---12-12--------|--5--5--5--5--5--5--5--5--|
--12---12---12---12-12--------|--5--5--5--5--5--5--5--5--|
--12---12---12---12-12--------|--5--5--5--5--5--5--5--5--|

   E   E   E   E   E   E   E   E      E   E   E   E   E   E   E   E
----------------------------------|----------------------------------|
----------------------------------|----------------------------------|
--10--10--10--10--10--10--10--10--|--12--12--12--12--12--12--12--12--|
---8---8---8---8---8---8---8---8--|--10--10--10--10--10--10--10--10--|
---8---8---8---8---8---8---8---8--|--10--10--10--10--10--10--10--10--|
---8---8---8---8---8---8---8---8--|--10--10--10--10--10--10--10--10--|

  PM PM PM PM PM PM PM PM
  E  E  E  E  E  E  E  E     E  E  E  E  E  E  E  E
--------------------------|--------------------------|
--------------------------|--------------------------|
--------------------------|--7--7--7--7--7--7--7--7--|
--------------------------|--5--5--5--5--5--5--5--5--|
--0--0--0--0--0--0--0--0--|--5--5--5--5--5--5--5--5--|
--0--0--0--0--0--0--0--0--|--5--5--5--5--5--5--5--5--|

   E   E   E   E   E   E   E   E      E   E   E   E   E   E   E   E
----------------------------------|----------------------------------|
----------------------------------|----------------------------------|
--10--10--10--10--10--10--10--10--|--12--12--12--12--12--12--12--12--|
---8---8---8---8---8---8---8---8--|--10--10--10--10--10--10--10--10--|
---8---8---8---8---8---8---8---8--|--10--10--10--10--10--10--10--10--|
---8---8---8---8---8---8---8---8--|--10--10--10--10--10--10--10--10--|

  PM PM PM PM PM PM PM PM
  E  E  E  E  E  E  E  E     E.  E.  E  E  Q.        E.  E.  E  Q      Q
--------------------------|-----------------------|-------------------------|
--------------------------|-----------------------|-------------------------|
--------------------------|-----------------------|-------------------------|
--------------------------|--0---0---0--0---------|--0---0---0--1-----------|
--0--0--0--0--0--0--0--0--|--0---0---0--0---------|--0---0---0--1-----------|
--0--0--0--0--0--0--0--0--|--0---0---0--0---------|--0---0---0--1----<>1----|

  E.  E.  E  E  Q.        E.  E.  E  Q      Q       E.  E.  E  E  Q.
-----------------------|-------------------------|-----------------------|
-----------------------|-------------------------|-----------------------|
-----------------------|-------------------------|-----------------------|
--0---0---0--0---------|--0---0---0--1-----------|--0---0---0--0---------|
--0---0---0--0---------|--0---0---0--1-----------|--0---0---0--0---------|
--0---0---0--0---------|--0---0---0--1----<>1----|--0---0---0--0---------|

  E.  E.  E  Q      Q       E.  E.  E  E  Q.        E.  E.  E  Q      Q
-------------------------|-----------------------|-------------------------|
-------------------------|-----------------------|-------------------------|
-------------------------|-----------------------|-------------------------|
--0---0---0--1-----------|--0---0---0--0---------|--0---0---0--1-----------|
--0---0---0--1-----------|--0---0---0--0---------|--0---0---0--1-----------|
--0---0---0--1----<>1----|--0---0---0--0---------|--0---0---0--1----<>1----|

   E    E    E    E    E   E      E    E    E    E    E  E
------------------------------|-----------------------------|
------------------------------|-----------------------------|
------------------------------|-----------------------------|
--12---12---12---12---10--15--|--12---12---12---12---10--7--|
--12---12---12---12---10--15--|--12---12---12---12---10--7--|
--12---12---12---12---10--15--|--12---12---12---12---10--7--|

   E.   E.   E.   E.   E   E      E.   E.   E.   S  S S Q
------------------------------|------------------------------|
------------------------------|------------------------------|
------------------------------|------------------------------|
--12---12---12---12---10--15--|--12---12---12---12-12--------|
--12---12---12---12---10--15--|--12---12---12---12-12--------|
--12---12---12---12---10--15--|--12---12---12---12-12--------|

   E    E    E    E    E   E      E    E    E    E    E  E
------------------------------|-----------------------------|
------------------------------|-----------------------------|
------------------------------|-----------------------------|
--12---12---12---12---10--15--|--12---12---12---12---10--7--|
--12---12---12---12---10--15--|--12---12---12---12---10--7--|
--12---12---12---12---10--15--|--12---12---12---12---10--7--|

   E.   E.   E.   E.   E   E      E.   E.   E.   S  S S Q
------------------------------|------------------------------|
------------------------------|------------------------------|
------------------------------|------------------------------|
--12---12---12---12---10--15--|--12---12---12---12-12--------|
--12---12---12---12---10--15--|--12---12---12---12-12--------|
--12---12---12---12---10--15--|--12---12---12---12-12--------|

  E  E  E  E  E  E  E  E     E  E  E  E  E  E  E  E
--------------------0-----|--------0-----3-----0-----|
--------1-----3--------3--|--1--1-----1-----1-----1--|
--2--2-----2-----2--------|--------------------------|
--------------------------|--------------------------|
--------------------------|--------------------------|
--------------------------|--------------------------|

  E  E  E  E  E  E  E  E     E  E  E  E  E  E  E  E
--------------------------|--------------------------|
--------0-----1-----3--1--|--------------1-----1--0--|
--0--0-----0-----0--------|--------2-----------------|
--------------------------|--3--3-----3-----3--------|
--------------------------|--------------------------|
--------------------------|--------------------------|

  E  E  E  E  E  E  E  E     E  E  E  E  E  E  E  E
--------------------0-----|--------0-----3-----0-----|
--------1-----3--------3--|--1--1-----1-----1-----1--|
--2--2-----2-----2--------|--------------------------|
--------------------------|--------------------------|
--------------------------|--------------------------|
--------------------------|--------------------------|

  E  E  E  E  E  E  E  E     E  E  E  E  E  E  E  E
--------------------------|--------------------------|
--------0-----1-----3--1--|--------------1-----1--0--|
--0--0-----0-----0--------|--------2-----------------|
--------------------------|--3--3-----3-----3--------|
--------------------------|--------------------------|
--------------------------|--------------------------|

  E  E  E  E  E  E  E  E     E  E  E  E  E  E  E  E
--------------------0-----|--------0-----3-----0-----|
--------1-----3--------3--|--1--1-----1-----1-----1--|
--2--2-----2-----2--------|--------------------------|
--------------------------|--------------------------|
--------------------------|--------------------------|
--------------------------|--------------------------|

  E  E  E  E  E  E  E  E     E  E  E  E  E  E  E  E
--------------------------|--------------------------|
--------0-----1-----3--1--|--------------1-----1--0--|
--0--0-----0-----0--------|--------2-----------------|
--------------------------|--3--3-----3-----3--------|
--------------------------|--------------------------|
--------------------------|--------------------------|

  E  E  E  E  E  E  E  E     E  E  E  E  E  E  E  E
--------------------0-----|--------0-----3-----0-----|
--------1-----3--------3--|--1--1-----1-----1-----1--|
--2--2-----2-----2--------|--------------------------|
--------------------------|--------------------------|
--------------------------|--------------------------|
--------------------------|--------------------------|

  E  E  E  E  E  E  E  E     E  E  E  E  E  E  E  E
--------------------------|--------------------------||
--------0-----1-----3--1--|--------------1-----1--0--||
--0--0-----0-----0--------|--------2-----------------||
--------------------------|--3--3-----3-----3--------||
--------------------------|--------------------------||
--------------------------|--------------------------||

Duration Legend

W - whole
H - half
Q - quarter
E - 8th
S - 16th
T - 32nd
X - 64th
. - note dotted
|-n-|  - n-tuplets

L - tied note
x - dead note
g - grace note
(n) - ghost note
> - accentuded note
NH - natural harmonic
AH - artificial harmonic
TH - tapped harmonic
SH - semi harmonic
PH - pitch harmonic
h - hammer on
p - pull off
b - bend
br - bendRelease
pb - preBend
pbr - preBendRelease
brb - bendReleaseBend
\n/ - tremolo bar dip
\n - tremolo bar dive
-/n - tremolo bar Release up
/n\ - tremolo bar inverted dip
/n - tremolo bar return
-\n - tremolo bar Release down
S - shift slide
s - legato slide
/ -  slide into from below or out of upwards
\ -  slide into from above or out of downwards
~ - vibrato
W - wide vibrato
tr - trill
TP - tremolo picking
T - tapping
S - slap
P - pop
< - fade in
^ - brush up
v - brush down