Misc. Unsigned Bands - Black Edge - Forgotten Text Guitar Tab

Learn the song with the online tablature player
d---------------------------------------------------------------|
a---------------------------------------------------------------|
d---------------------------------------------------------------|
g---------------------------------------------------------------|
b-15-17-18--17-18-20------------------20-18-17-18-17-15/--------|
e-------------------17~-17-18-20-18-17--------------------------|

d----------------------------------------------------------------|
a----------------------------------------------------------------|
d----------------------------------------------------------------|
g-7-9-10------------10~-9~-9-10-9-------------10-9---------------|
b-------8-10-11-10-8-------------10///-12-10-9----10-5~-5-6-5~---|
e----------------------------------------------------------------|

d-----------------------------------------------------------------|
a-----------------------------------------------------------------|
d-----------------------------------------------------------------|REPEAT 3x
g-----------------------------------------------------------------|
b-5-6-8-8-6-5----------------6-5~---------------------------------|
e------------6////10-6-8-6-5--------------------------------------|