Misc. Unsigned Bands - Black Mare - When The Canons Bang Text Guitar Tab

Learn the song with the online tablature player
intro
|----------------|
|----------------|
|----------------|
|-77-55-333555---|
|-77-55-333555---|
|-55-33-111333---|   x3

then play
|-------------------------|
|-------------------------|
|-------------------------|
|-7777-5555-333-555-------|
|-7777-5555-333-555-------|
|-5555-3333-111-333-------| x4
verse
|-------------------------|
|-------------------------|
|-5-5-------7-7-----------|
|-5-5--5-5--7-7--7-7------|
|-3-3--5-5--5-5--7-7------|
|------3-3-------5-5------|

chorus
|-------------------------|
|-------------------------|
|-------------------------|
|-7777777-101010-9--------|
|-7777777-101010-9--------|
|-5555555-070707-6--------| play this twice

im gonna make the solo to
P   peace>>