Misc. Unsigned Bands - Black Rose - Hope For Love Text Guitar Tab

Learn the song with the online tablature player
                             SONG NAME:hope for love. Band Name:black rose

e|----------------------2----3-----------------------------------0----3------------|
B|---------------3-----------------3------------------------1----------------------|
G|--------2------------------------------3-------------2---------------------------|
D|---0-------------------------------------------3---------------------------------|
A|---------------------------------------------------------------------------------|
E|---------------------------------------------------------------------------------|

e|--------------------------------------------------0-----3-----------------------|
B|-----1------------------------------------1-------------------1-----------------|
G|-------------2--------------------2----------------------------------2----------|
D|---------------------3------2-------------------------------------------2-------|
A|--------------------------------------------------------------------------------|
E|--------------------------------------------------------------------------------|

you do that like two times the you do the following cords:c,e7,am,am,am