Misc. Unsigned Bands - Blackhole - Beau Text Guitar Tab

Learn song with the online tabulature player
-------------------------------------------------------------------------------
                             BEAU - Blackhole
-------------------------------------------------------------------------------
Tabbed by: Tom O'Dwyer
Email: againstforgetting@hotmail.co.uk

Tuning: DADGBE

Intro/Verse x2
e|---------------------------------------------------------------------------|
B|---------------------------------------------------------------------------|
G|-----------------------5--7b--5--------------------7-7-5-------------------|
D|--7-7------------5--7------------5-3-3-3-3-3-3-3---7-7-5---3-5-------------|
A|--7-7---5--3--0------------------5-3-3-3-3-3-3-3---5-5-3---3-5-------------|
D|--7-7----------------------------5-3-3-3-3-3-3-3-----------3-5-------------|

e|---------------------------------------------------------------------------|
B|---------------------------------------------------------------------------|
G|---------------------------------------------------------------------------|
D|--7-7------------------------3-3-3-3-3-3-3-3--2-2-2-2-2-2------------------|
A|--7-7---5--3--0--3--5--3-----3-3-3-3-3-3-3-3--2-2-2-2-2-2------------------|
D|--7-7---------------------5--3-3-3-3-3-3-3-3--2-2-2-2-2-2------------------|
PM                                              x-x-x-x-x-x                           



| /  slide up
| \  slide down
| h  hammer-on
| p  pull-off
| ~  vibrato
| +  harmonic
| x  Mute note
===============================================================================