Misc. Unsigned Bands - Blackhole - Not That This Is A Bad Thing Text Guitar Tab

Learn song with the online tabulature player
Tuning is Drop D Just the main riff for now, if anyone wants more just ask
----------------------------------------------|
----------------------------------------------|
-------------------2--5-5-5-------------------|
0-0-0-3-5--3-3-3-5-2--5-5-5-3-5-0------3------|
0-0-0-3-5--3-3-3-5-0--3-3-3-3-5-0--3-5---5-33-|
0-0-0-3-5--3-3-3-5----------3-5-0-------------|

---------------------------------------------|
---------------------------------------------|
-------------------2--5-5-5---------7-7-7-7--|
0-0-0-3-5--3-3-3-5-2--5-5-5-3-3-5-0-7-7-7-7--|
0-0-0-3-5--3-3-3-5-0--3-3-3-3-3-5-0----------|
0-0-0-3-5--3-3-3-5----------3-3-5-0----------|

Listen to the song to work out the rhythm I'm not good at tabbing rhythms.