Misc. Unsigned Bands - Blinded Mind - Paralized Text Guitar Tab

Learn the song with the online tablature player
Same thing but NO PALM MUTE
e|-------------------------------------|
B|-------------------------------------|
G|-------------------------------------|
D|------2--------------------2---------|
A|-4444---0000-2-2222-4-4444---0000-2b~|
E|-------------------------------------|

Verse
e|---------------------------------------|
B|---------------------------------------|
G|---------------------------------------|
D|----4----4----2----2-------------------|do this 3 times
A|-22-2-44-4-00-0-22-2-------------------|
E|---------------------------------------|
PM --   --   --   -----------------------|
Chorus
e|---------------------------------------------------------|
B|---------------------------------------------------------|
G|---------------------------------------------------------|
D|-------------------55555555----------4444-4444-2222-2222-|
A|-44444444-0--3--2--33333333-33333333-2222-4444-0000-2222-|
E|-22222222-0--3--2-----------11111111---------------------|

then play verse again then play the chorus
Ending
e|--------|
B|--------|
G|--------|
D|-0-0-3--|
A|-0-0-1--|
E|-0-0----|