Misc. Unsigned Bands - Blindside Drive - Shes My World Text Guitar Tab

Learn the song with the online tablature player
Band: Blindside Drive
Song: She's My world
Album: Empires Rise and Fall

Intro / Verse

Guitar 1
|----------------------------------------------|
|-----5----------5----------5----------5-------|
|---4---4------4---4------4---4------4---4-----|
|-2--------------------------------------------|
|------------2----------0----------2-----------|
|----------------------------------------------|

Guitar 2 (comes in at 15 seconds)

|------------------------------|
|------------------------------|
|-9-9-9---9---9-9---9-9-9---9--|
|-x-x-x---x---x-x---x-x-x---x--|
|-7-7-7---7---7-7---7-7-7---7--|
|------------------------------|

Chorus

Guitar 1
|---------------------------------------------------------------------|
|---------------------------------------------------------------------|
|-9-9-9-9-9-9-9-9--8-8-8-8-8-8-8-8--6-6-6-6-6-6-6-6--4-4-4-4-4-4-4-4--|
|-9-9-9-9-9-9-9-9--8-8-8-8-8-8-8-8--6-6-6-6-6-6-6-6--4-4-4-4-4-4-4-4--|
|-7-7-7-7-7-7-7-7--6-6-6-6-6-6-6-6--4-4-4-4-4-4-4-4--2-2-2-2-2-2-2-2--|
|---------------------------------------------------------------------|

Guitar 2
|---------------------------------------------------------------------|
|---------------------------------------------------------------------|
|-9-9-9-9-9-9-9-9--9-9-9-9-9-9-9-9--6-6-6-6-6-6-6-6--4-4-4-4-4-4-4-4--|
|-x-x-x-x-x-x-x-x--x-x-x-x-x-x-x-x--x-x-x-x-x-x-x-x--x-x-x-x-x-x-x-x--|
|-7-7-7-7-7-7-7-7--6-6-6-6-6-6-6-6--4-4-4-4-4-4-4-4--2-2-2-2-2-2-2-2--|
|---------------------------------------------------------------------|