Misc. Unsigned Bands - Bloodstains - Resurrection Text Guitar Tab

Learn the song with the online tablature player
Bloodstains - Resurrection

Play all three Verses like this
---------------------------------------------------|
---------------------------------------------------|
-----------9-9-9-9--7-7-7-7------------------------|
--7-7-7-7--9-9-9-9--7-7-7-7--7-7-7-7---------------|
--7-7-7-7--7-7-7-7--5-5-5-5--7-7-7-7---------------|
--5-5-5-5--------------------5-5-5-5---------------|   (4x)

Refrain
---------------------------------------------------|
---------------------------------------------------|
-----------9------9-9-9-9--7-7-7-7-----------------|
--9-9-9-9--9-9-9--9-9-9-9--7-7-7-7-----------------|
--9-9-9-9--7-9-9--7-7-7-7--5-5-5-5-----------------|
--7-7-7-7----7-7-----------------------------------|   (4x)