Misc. Unsigned Bands - Boiling Turkey - Without You Text Guitar Tab

Learn song with the online tabulature player
Intro:
Guitar 1:
|-------------------------------------|
|-------------------------------------|
|----12----12--12--12------12--12-----|
|--10----11--10--10--10--11--11-------|
|-------------------------------------|
|-------------------------------------|
intro prt 2: guitar 1:
|-------------------------------------|
|-------------------------------------|
|-------------------------------------|
|--5-x8-5-5-x8------------------------|
|--3-x8-0-2-x8------------------------|
|-------------------------------------|x4
guitar 2:
|-------------------------------------|
|--5-6-5------------------------------|
|--------5-7~-------------------------|
|-------------------------------------|
|-------------------------------------|
|-------------------------------------|x4

Verse:
guitar 1:
|-------------------------------------|
|-------------------------------------|
|-------------------------------------|
|--5-x6--5-x6-------------------------|
|--3-x6--2-x6-------------------------|
|-------------------------------------|x6
guitar 2:
|-------------------------------------|
|-------------------------------------|
|--5-4-5------------------------------|
|--------5----------------------------|
|-------------------------------------|
|-------------------------------------|x6



Chorus:
guitar 1:
|---------------------------------------------------|
|---------------------------------------------------|
|---------------------------------------------------|
|--5-x5--5-x5--------------5-x8-5-x8----------------|
|--3-x5--2-x5--3-x5--5-x8--3-x8-2-x8--3-x8--5 x8----|
|--------------1-x5--3-x8-------------1-x8--3--x8---|
Pre verse:
guitar 1:
|-------------------------------------|
|-------------------------------------|
|-------------------------------------|
|--5-x8-5-5-x8------------------------|
|--3-x8-0-2-x8------------------------|
|-------------------------------------|x4
guitar 2:
|-------------------------------------|
|--5-6-5------------------------------|
|--------5-7~-------------------------|
|-------------------------------------|
|-------------------------------------|
|-------------------------------------|x4

Bridge ("Tomarow, a new day...")
same as pre verse, but, strummed differently.

breakdown:
Guitar 1: same as verse
Guitar 2: same as intro prt 1

Ending:
Guitar 2: same as bridge, with no distortion.

By: boiling turkey

www.myspace.com/boilingurkey