Misc. Unsigned Bands - Bowsr - Oh Baby Text Guitar Tab

Learn the song with the online tablature player
Bowsr - Oh Baby

bpm = 142

RHYTHM GUITAR

Intro
-----------------------------------------------------------------------| R
-----------------------------------------------------------------------| E
-----------------------------------------------------------------------| P
-9-9-9-9-9-9-9-9--7-7-7-7-7-7-7-7--5-5-x-x-5-5-x-x---------------------| E
-9-9-9-9-9-9-9-9--7-7-7-7-7-7-7-7--5-5-x-x-5-5-x-x---------------------| A
-9-9-9-9-9-9-9-9--7-7-7-7-7-7-7-7--5-5-x-x-5-5-x-x----------------- T--| x3

Verse
Drums

Chorus
-----------------------------------------------------------------------| R
-----------------------------------------------------------------------| E
-----------------------------------------------------------------------| P
-9-9-9-9-9-9-9-9--7-7-7-7-7-7-7-7--5-5-x-x-5-5-x-x---------------------| E
-9-9-9-9-9-9-9-9--7-7-7-7-7-7-7-7--5-5-x-x-5-5-x-x---------------------| A
-9-9-9-9-9-9-9-9--7-7-7-7-7-7-7-7--5-5-x-x-5-5-x-x----------------- T--| x3

Verse
Drums

Chorus
-----------------------------------------------------------------------| R
-----------------------------------------------------------------------| E
-----------------------------------------------------------------------| P
-9-9-9-9-9-9-9-9--7-7-7-7-7-7-7-7--5-5-x-x-5-5-x-x---------------------| E
-9-9-9-9-9-9-9-9--7-7-7-7-7-7-7-7--5-5-x-x-5-5-x-x---------------------| A
-9-9-9-9-9-9-9-9--7-7-7-7-7-7-7-7--5-5-x-x-5-5-x-x----------------- T--| x3

Underneath Solo
-----------------------------------------------------------------------| R
-----------------------------------------------------------------------| E
-----------------------------------------------------------------------| P
-9-9-9-9-9-9-9-9--7-7-7-7-7-7-7-7--5-5-x-x-5-5-x-x---------------------| E
-9-9-9-9-9-9-9-9--7-7-7-7-7-7-7-7--5-5-x-x-5-5-x-x---------------------| A
-9-9-9-9-9-9-9-9--7-7-7-7-7-7-7-7--5-5-x-x-5-5-x-x----------------- T--| x3

Outro Chorus
--------------------------------------------------------------------| R
--------------------------------------------------------------------| E
--------------------------------------------------------------------| P
-9-9-9-9-9-9-9-9--7-7-7-7-7-7-7-7--5-5-x-x-5-5-x-x------------------| E
-9-9-9-9-9-9-9-9--7-7-7-7-7-7-7-7--5-5-x-x-5-5-x-x------------------| A
-9-9-9-9-9-9-9-9--7-7-7-7-7-7-7-7--5-5-x-x-5-5-x-x------------------| T a lot

LEAD GUITAR

Solo
-10p7-7-7-12p7-7-7-10p7-7-7-12p7-7-7-10p7-7-7-12p7-7-7-10p7-7-7-12p7-7-7-|
-------------------------------------------------------------------------|
-------------------------------------------------------------------------|
-------------------------------------------------------------------------|
-------------------------------------------------------------------------|
-------------------------------------------------------------------------|

-12p10p7-12p10p7-12p10p7-12p10p7-12p10p7-12p10p7-12p10p7-12p10p7---------|
-------------------------------------------------------------------------|
-------------------------------------------------------------------------|
-------------------------------------------------------------------------|
-------------------------------------------------------------------------|
-------------------------------------------------------------------------|

-14p10p7-14p10p7-14p10p7-14p10p7-14p10p7-14p10p7-14p10p7-14p10p7---------|
-------------------------------------------------------------------------|
-------------------------------------------------------------------------|
-------------------------------------------------------------------------|
-------------------------------------------------------------------------|
-------------------------------------------------------------------------|

-14-7-14-7-15-7-15-7-16-7-16-7-17-7-17-7-18-7-18-7-19-7-19-7-19-7-19-7-19-|
--------------------------------------------------------------------------|
--------------------------------------------------------------------------|
--------------------------------------------------------------------------|
--------------------------------------------------------------------------|
--------------------------------------------------------------------------|

-7-19-7-19-7-19-7-19-7-19-7-19-7-19-7-19-7-19-7-19-19-19-19-19-19-19-19--|
-------------------------------------------------x--x--x--x--x--x--x--x--|
------------------------------------------------16-16-16-16-16-16-16-16--|
-------------------------------------------------------------------------|
-------------------------------------------------------------------------|
-------------------------------------------------------------------------|

Ad lib Outro Chorus

End on B