Misc. Unsigned Bands - Brainless - Just Cant Help It Text Guitar Tab

Learn the song with the online tablature player
This is one of the best and most simple to play songs by the german rockband Brainless
It's heaps rockin so have fun with it!

INTRO
4x
e|---------------------------------|
h|---------------------------------|
G|---------------------------------|
D|-x---x---x---x---x---x---x---xxx-|
A|-x---x---x---x---x---x---x---xxx-|
E|-10--10--10--10--10--10--10--888-|

4x
e|-----------------------------------|
h|-----------------------------------|
G|-----------------------------------|
D|-12--12--12--12--12--12--12-101010-|
A|-12--12--12--12--12--12--12-101010-|
E|-10--10--10--10--10--10--10-8-8-8--|

VERSE
4x
e|-----------------------------------|
h|-----------------------------------|
G|-----------------------------------|
D|-12--12--12--12--12--12--12-101010-|
A|-12--12--12--12--12--12--12-101010-|
E|-10--10--10--10--10--10--10-8-8-8--|

CHORUS
e|----------------------------------------------|
h|----------------------------------------------|
G|----------------------------------------------|
D|-8--8--8--8--8--8--8--10-10-10-10-10-10-10-10-|
A|-8--8--8--8--8--8--8--10-10-10-10-10-10-10-10-|
E|-6--6--6--6--6--6--6--8--8--8--8--8--8--8--8--|

e|-----------------------------------|
h|-----------------------------------|
G|-----------------------------------|
D|-12--12--12--12--12--12--12-101010-|
A|-12--12--12--12--12--12--12-101010-|
E|-10--10--10--10--10--10--10-8-8-8--|

e|----------------------------------------------|
h|----------------------------------------------|
G|----------------------------------------------|
D|-8--8--8--8--8--8--8--10----------------------|
A|-8--8--8--8--8--8--8--10----------------------|
E|-6--6--6--6--6--6--6--8-----------------------|

INTRO

VERSE

CHORUS

INTRO 1/2

SOLO
e|------------------------------------------------------------|
h|------------------------------------------------------------|
G|-12b-10-12b-10--12-1012-1012-12b-10----10--10--10--10-------|
D|-------------------------------------12--12--12--12---10-11-|
A|------------------------------------------------------------|
E|------------------------------------------------------------|

e|------------------------------------------------------------------|
h|------------------------------------------------------------------|
G|---10--10--10--10--------12121212121212121212121212121212-12b-10~-|
D|-12--12--12--12---10-11-------------------------------------------|
A|------------------------------------------------------------------|
E|------------------------------------------------------------------|

INTRO

VERSE
only bass playing)

CHORUS 2x
guitar comes in for the intro riff)

(short break)

OUTRO
8x
A|-12--121212101010--12--121212101010--|
A|-12--121212101010--12--121212101010--|
E|-10--1010108-8-8---12--1010108-8-8---|

end on G (E10, A12, D12) and let ring.

That's just about the whole song it's real simple, just have a listen to it!