Misc. Unsigned Bands - Brass Assassins - A Winter Memory Text Guitar Tab

Learn the song with the online tablature player
A Winter Memory - Brass Assassins

This is a tab that I created with the help of my friend and fellow band member, Ryan
 It pays tribute to "A Jagged Gorgeous Winter" by the Main Drag, as well as "Never Meant"
American Football.  In fact, the lyrics for "A Jagged Gorgeous Winter" fit nicely with
song. There is more to the song, but we're still working on it.  Enjoy!

Key:

h = hammer on
p = pull off

Intro

guitar 1

e---------------3-----0---------------|
a---------1-------1-----1----1h3-1----|
d---2-------2-------------------------|
g-----3-------------------------------|
b-------------------------------------|
E-1-----1-----1-----1-----1-----------| (x2)

guitar 1

e---3-----0---------------------------|
a-----1-----1---3-----1------1h3-1----|
d-----------------2-----2-------------|
g-------------------------------------|
b-3-----3-----3-----3------3----------|
E-------------------------------------| (x2)

guitar 1

e---------------3-----0---------------|
a---------1-------1-----1----1h3-1----|
d---2-------2-------------------------|
g-----3-------------------------------|
b-------------------------------------|
E-1-----1-----1-----1-----1-----------| (x2)

guitar 2 (palm-muted)

e-------------------------------------|
a-------------------------------------|
d-------------------------------------|
g-------------------------------------|
b-3-3-3-3-3-3-3-3-3-3-3-3-3-3-3-------|
E-1-1-1-1-1-1-1-1-1-1-1-1-1-1-1-------| (x2)

guitar 1

e---3-----0---------------------------|
a-----1-----1---3-----1------1h3-1----|
d-----------------2-----2-------------|
g-------------------------------------|
b-3-----3-----3-----3------3----------|
E-------------------------------------| (x2)

guitar 2 (palm-muted)

e-------------------------------------|
a-------------------------------------|
d-------------------------------------|
g-5-5-5-5-5-5-5-5-5-5-5-5-5-5-5-------|
b-3-3-3-3-3-3-3-3-3-3-3-3-3-3-3-------|
E-------------------------------------| (x2)

guitar 1

e-3--3--3--3--3--3-3-3-3-0-0--0-0----0------|
a-1--1--1--1--1--1-1-1-1-1-1--1-1-3--1------|
d-2--2--2--2--2--2-2-2-2-2-2--2-2-2--2------|
g-3--3--3--3--3--3-3-3-3-3-3--3-3-3--3------|
b-------------------------------------------|
E-------------------------------------------| (x2)

guitar 2

e-------------------------------------|
a-------------------------------------|
d-------------------------------------|
g-------------------------------------|
b-3-3-3-3-3-3-3-3-3-3-3-3-3-3-3-------|
E-1-1-1-1-1-1-1-1-1-1-1-1-1-1-1-------| (x2)

guitar 1

e-3--3--3--3--3--3-3-3-3-0-0--0-0----0------|
a-1--1--1--1--1--1-1-1-1-1-1--1-1-3--1------|
d-2--2--2--2--2--2-2-2-2-2-2--2-2-2--2------|
g-3--3--3--3--3--3-3-3-3-3-3--3-3-3--3------|
b-------------------------------------------|
E-------------------------------------------| (x2)

guitar 2

e-------------------------------------|
a-------------------------------------|
d-------------------------------------|
g-5-5-5-5-5-5-5-5-5-5-5-5-5-5-5-------|
b-3-3-3-3-3-3-3-3-3-3-3-3-3-3-3-------|
E-------------------------------------| (x2)

guitar 1

e---------------3-----0---------------|
a---------1-------1-----1----1h3-1----|
d---2-------2-------------------------|
g-----3-------------------------------|
b-------------------------------------|
E-1-----1-----1-----1-----1-----------| (x2)

guitar 1

e---3-----0---------------------------|
a-----1-----1---3-----1------1h3-1----|
d-----------------2-----2-------------|
g-------------------------------------|
b-3-----3-----3-----3------3----------|
E-------------------------------------| (x2)

guitar 2

e-15----------15----------------------|
a-------12----------13-----13-13h15p13|
d-------------------------------------|
g-------------------------------------|
b-------------------------------------|
E-------------------------------------| (x2)

guitar 1

e---------------3-----0---------------|
a---------1-------1-----1----1h3-1----|
d---2-------2-------------------------|
g-----3-------------------------------|
b-------------------------------------|
E-1-----1-----1-----1-----1-----------| (x2)

guitar 2

e-15----------15--------------------------|
a-------12----------13-----13-13h15-17----|
d-----------------------------------------|
g-----------------------------------------|
b-----------------------------------------|
E-----------------------------------------| (x2)

guitar 2

e-15----------15----------------------|
a-------12----------13----------------|
d-------------------------------------|
g-------------------------------------|
b-------------------------------------|
E-------------------------------------|