Misc. Unsigned Bands - Break The Silence - Can Anyone Inside Try Text Guitar Tab

Learn the song with the online tablature player
                Can Anyone Inside Try? - Break the Silence

Intro

e|-----------------------------------------------------------|
B|-----------------------------------------------------------|
G|-----------------------------------------------------------|
D|----9-10-12----9-10-12-----9-10-12-------------------------|
A|-----------------------------------------------------------|
E|-0----------0-----------0----------------------------------|

First Verse:

e|-----------------------------------------------------------|
B|-----------------------------------------------------------|
G|-----------------------------------------------------------|
D|-----9-9-----9-9-9-10-7------9-9-----9-9-9-10-7------------|
A|-----------------------------------------------------------|
E|-0-0-----0-0-------------0-0-----0-0-----------------------|

e|------------------------------------------------------------|
B|------------------------------------------------------------|
G|------------------------------------------------------------|
D|-----9-9-----9-9-9-10-7------9-9-----9-9-9-10-7-------------|
A|------------------------------------------------------------|
E|-0-0-----0-0-------------0-0-----0-0------------------------|

e|-----------------------------------------------------------|
B|-----------------------------------------------------------|
G|-----------------------------------------------------------|
D|-----9-9-----9-9-9-10-7-7-7-5-5-3-3-2-2-2-3-2--------------|
A|-----------------------------------------------------------|
E|-0-0-----0-0-----------------------------------------------|

Chorus

e|-----------------------------------------------------------|
B|-----------------------------------------------------------|
G|-----------------------------------------------------------|
D|-9999999999999999-10101010101010101010101010101010-121212--|
A|-----------------------------------------------------------|
E|-----------------------------------------------------------|

e|-----------------------------------------------------------|
B|-----------------------------------------------------------|
G|-----------------------------------------------------------|
D|-12121212121212121212121212-1010101010101010-99999999------|
A|-----------------------------------------------------------|
E|-----------------------------------------------------------|

Second Verse:

e|-----------------------------------------------------------|
B|-----------------------------------------------------------|
G|-----------------------------------------------------------|
D|-----9-9-----9-9-9-10-7------9-9-----9-9-9-10-7------------|
A|-----------------------------------------------------------|
E|-0-0-----0-0-------------0-0-----0-0-----------------------|

e|-----------------------------------------------------------|
B|-----------------------------------------------------------|
G|-----------------------------------------------------------|
D|-----9-9-----9-9-9-10-7------9-9-----9-9-9-10-7\-\-\-\-\-\-|
A|-----------------------------------------------------------|
E|-0-0-----0-0-------------0-0-----0-0-----------------------|

Breakdown

e|-----------------------------------------------------------|
B|-----------------------------------------------------------|
G|-----------------------------------------------------------|
D|-h-2-2-2-2-2-2-2-2-h-3-3-3-3-3-3-3-\-5-/-h-2-2-2-2-2-2-2-2-|
A|-h-2-2-2-2-2-2-2-2-h-3-3-3-3-3-3-3-\-5-/-h-2-2-2-2-2-2-2-2-|
E|-h-2-2-2-2-2-2-2-2-h-3-3-3-3-3-3-3-\-5-/-h-2-2-2-2-2-2-2-2-|

e|----------------------------------------------------------------------------|
B|----------------------------------------------------------------------------|
G|----------------------------------------------------------------------------|
D|-h-3-3-3-3---h-3-3-3-3---h-3------------------------------------------------|
A|-h-3-3-3-3---h-3-3-3-3---h-3------------------------------------------------|
E|-h-3-3-3-3---h-3-3-3-3---h-3------------------------------------------------|

Hope you like the song, enjoy playing it!

Camden Beu