Misc. Unsigned Bands - Breaking Twilight - To My Baby Text Guitar Tab

Learn the song with the online tablature player
i wrote this for a girl =p ha ha  theres more to it but i havent really perfected it yet
ill update this later with the rest,it is really pretty :)

~=let ring
*=natural harmonic

e|---------------------------------------------------------------|
b|---0-----0-----0-----0-----0------0-----0-----0-----0-----0----|
g|-----0-----0-----0-----0-----0~-----0-----0-----0-----0-----0~-|
d|---------------------------------------------------------------|
a|-3-----3-----3-----3-----3------0-----0-----0-----0-----0------|
e|---------------------------------------------------------------|

e|---------------------------------------------------|
b|---0-----0-----0-----0-----0------0-----0-----*7---|
g|-----0-----0-----0-----0-----0~-----0-----0-----*7-|
d|-2-----2-----2-----2-----2------0-----0-----0------|   x2
a|---------------------------------------------------|
e|---------------------------------------------------|

(Tempo slows down)
e|-------0-----------0------------0------------2------|
b|---0-----0-----0-----0------0-----0------0-----0----|
g|-----0-----0-----0-----0------0-----0------0-----0~-|
d|--------------------------2------------0------------|   x2
a|-3-----------0--------------------------------------|
e|----------------------------------------------------|