Misc. Unsigned Bands - Breed77 - Rise Text Guitar Tab

Learn the song with the online tablature player
                             Rise - Breed77

Intro
e|-------------------------------------------------------|
B|-------------------------------------------------------|
G|-------------------------------------------------------|
D|-------------------------------------------------------|
A|-------------------------------------------------------|
D|-2--2--0-2-0-2-0-2-0-2-3-2---2--2--0-2-0-2-0-2-3-6-----|

Chorus
e|-------------------------------------------------------|
B|-------------------------------------------------------|
G|-------------------------------------------------------|
D|-------------------------------------------------------|
A|-------------------------------------------------------|
D|--0-2-0-2-0-2-0-2-0-2-0232--0-2-0-2-0-2-0-2-3-6--------|

Verse
use a loud pedal to get the same effect)
e|-------------------------------------------------------|
B|-------------------------------------------------------|
G|-------------------------------------------------------!
D|---9999999999999999-1010101010101010-7777777-----------|
A|---7777777777777777--8-8-8-8-8-8-8-8-5555555-----------|
D|-------------------------------------------------------|

Post-Chorus
e|-------------------------------------------------------|
B|-------------------------------------------------------|
G|-------------------------------------------------------|
D|--6/7---7--6666----------------------------------------|
A|-------------------------------------------------------|
D|--------------------3-2-0-3-2-0-3-2-0-3-2-0------------|

Bridge
e|-------------------------------------------|
B|-------------------------------------------|
G|---------8------------7/8/7------------8---|
D|-------------------------------------------|
A|---5----------5-5-5---------------5--------|
D|-- 0----------0-0-0---------------0--------|

e|-----------------------------|
B|-------------------9---------|
G|--------7--7-8-7-8---8-7-7---|
D|-----------------------------|
A|----5------------------------|
D|----0------------------------|

e|--------------------------------------|
B|--7---7---7---7---7---7-----7---7---7--
G|--8------8---8---8----7--7----7---7---|          X2
D|--------------------------------------|
A|--------------------------------------|
D|--------------------------------------|

e|--------------------------------------|
B|--7----7-----7------7----7----7-------|
G|----88---88X---888---77---77X---777---|
D|--------------------------------------|
A|--------------------------------------|
D|--------------------------------------|

e|-------------------------------|
B|-----7-------------------------|
G|--------88--8888--88888--7^----|
D|-------------------------------|
A|-------------------------------|
D|-------------------------------|

e|-----------------------------------------|
B|--7----7---7---7-----7----7---7---7------|
G|--8--8---8---8---8---7--7---7---7---7----|
D|-----------------------------------------|
A|-----------------------------------------|
D|-----------------------------------------|

e|----------------------------------------------|
B|----7---7---7---7---7------------7------------|
G|------8---8---8---8---7^----7^-------8^---8^--|
D|----------------------------------------------|
A|----------------------------------------------|
D|----------------------------------------------|

e|------------------------------------------------------|
B|------7---------------7---------------7---------------|
G|---------7^-----7^-------8^-----8^-------7^---7^------|
D|------------------------------------------------------|
A|------------------------------------------------------|
D|------------------------------------------------------|

End part
e|---------------------------------------------------------|
B|---------------------------------------------------------|
G|---------------------------------------------------------|
D|---------------------------------------------------------|
A|---------------------------------------------------------|
D|--0-2-0-2-0-2-0-2-5-2------------------------------------|

Intro X 2
Chorus X 2
Verse X 4
Chorus X 2
Post-Chorus X 4
Intro X 1
Chorus X 2
Verse X 4
Chorus X 2
Post-Chorus X 4
Bridge
Chorus X 4
End part X 14