Misc. Unsigned Bands - Brocas Helm - Cry Of The Banshee Text Guitar Tab

Learn song with the online tabulature player
This is what i've come up with, i'm fairly  positive that it is correct, but if
you have any queries please email me fdogsmainman@hotmail.com

Currently unsigned, but have been signed in the past

SORRY NO SOLO

Drop D tuning

/ slide
b bend

--------------------------------------------------------------------|
--------------------------------------------------------------------|
--------------------------------------------------------------------|
--0/5-7-5-8-5-7-5-8-5-7-5-8-5-7----3-7-3-8-3-7-3-8-3-10-3-8-3-7-----|
--------------------------------------------------------------------|
--------------------------------------------------------------------|

------------------------------------------------------------|-----------------|
------------------------------------------------------------|-----------------|
------------------------------------------------------------|-----------------|
--1-10-1-8-1-7-1-8-1-7-1-8-1-7----5-7-5-8-5-7-5-8-5-10-5-12-|--12-5-b12-5-b12-|
------------------------------------------------------------|-----------------|
------------------------------------------------------------|-----------------|

Repeat above 2 bars. On the last repeat play the bar on the end ^^^^^^^^^^^^ that one.

---------------------------------------------------------------------|
---------------------------------------------------------------------|
---------------------------------------------------------------------|
--5-12-5-10-5-8-5-10-5-12-5-10-5-8-5-10-5-10-3-8-3-7-3-8-3-10--------|
---------------------------------------------------------------------|
---------------------------------------------------------------------|

---------------------------------------------------------------------|
---------------------------------------------------------------------|
---------------------------------------------------------------------|
--5-12-5-10-5-8-5-10-5-12-5-10-5-8-5-10-5-10-3-8-3-7-3-8-3-10--------|
---------------------------------------------------------------------|
---------------------------------------------------------------------|


--------------------------------------------------------------------|
--------------------------------------------------------------------|
--------------------------------------------------------------------|
--6-1-5-1-3-1-5-1-6-1-5-1-3-1-5-1-5----0----------------------------|
--------------------------------------------------------------------|
--------------------------------------------------------------------|


--------------------------------------------------------------------|
--------------------------------------------------------------------|
--------------------------------------------------------------------|
--6-1-5-1-3-1-5-1-6-1-5-1-3-1-5-1-5----0----------------------------|
--------------------------------------------------------------------|
--------------------------------------------------------------------|


--------------------------------------------------------------------|
--------------------------------------------------------------------|
--------------------------------------------------------------------|
--5------3------5------3------1------0------1------0----------------|
--5------3------5------3------1------0------1------0----------------|
--5------3------5------3------1------0------1------0----------------|

You can work out the strumming.

No solo sorry.


Outro is just like the last part of the intro. but much slower.
----------------------------------------------------------|
----------------------------------------------------------|
----------------------------------------------------------|
-5-7-5-8-5-7-5-8-5-10-5-b12--5/3-7-3-8-3-7-3-8-3-10-3-b12-|
----------------------------------------------------------|
----------------------------------------------------------|


----------------------------------------------------------|
----------------------------------------------------------|
----------------------------------------------------------|
-3/1-7-1-8-1-7-1-8-1-10-1-b12-----------------------------|
----------------------------------------------------------|
----------------------------------------------------------|
Repeat.