Misc. Unsigned Bands - Brodyquest - Neil Cicierega Text Guitar Tab

Learn song with the online tabulature player
This is when Adrian Brody comes out of the Sun. For the main riff, please look at the bottom :)
Key:
. = palm mutes
b = bend (number in brackets says what fret to make the bend sound like)
r = release the bend
h = hammer onto
p = pull off
~ = vibrato

e|------------------------------------------------------------|
B|------------------------------------------------------------|
G|------------------------------------------------------------|
D|--10---10-10----10-----------10--10-10--10----------10------|
A|--10---10-10----10---12-12---10--10-10--10--12-12---10------|
E|--8----8--8-----8----8--8----8---8--8---8---8--8----8-------|


e|--10-10-10p8-8p6-6-8-10---10p8-6-8-10----------------|
B|-----------------------------------------------------|
G|----------------------------------------5--5---2-2-5-|
D|----------------------------------------5--5---5-5-5-|
A|----------------------------------------3--3---3-3-3-|
E|-----------------------------------------------------|


e|-------------------------------------------------------|
B|--8b(9)-8-5-8-10-5--8-8-8b(10)-5--3-5-3-1-------1------|
G|------------------------------------------2br-2--------|
D|-------------------------------------------------------|
A|-------------------------------------------------------|
E|-------------------------------------------------------|


e|---------8-----------8-----------8--------------------|
B|--5---8------5---8-------5---8--------8---10---8---10-|
G|----7---7--7---7---7---7---7---7---7----7----7---7----|
D|------------------------------------------------------|
A|------------------------------------------------------|
E|------------------------------------------------------|
      .   .  .   .   .   .   .   .   .    .    .   .
(basically palm mute all the 7th fret notes)


e|----------------------------------------------------|
B|-5h8---10brbrbrbr--10-13-10-8-10h13p10-8-10-10-13b--|
G|----------------------------------------------------|
D|----------------------------------------------------|
A|----------------------------------------------------|
E|----------------------------------------------------|


e|-----------------------------------|
B|--10p8h10----3--5------13~-10-8~---|
G|-------------------5---------------|
D|-----------------------------------|
A|-----------------------------------|
E|-----------------------------------|

e|----------------------16-19b-18-16-18-21b-18-16-------------------|
B|--------8-10-13-15-17---------------------------15-15~-14-15------|
G|---8-11-----------------------------------------------------------|
D|------------------------------------------------------------------|
A|------------------------------------------------------------------|
E|------------------------------------------------------------------|


Tabbed by Shez (Zehsx) :)
As for the main riff: (thanks to LemonDemon)
|-------------------------|
|-------------------------|
|-------------------------|
|--------------2-h3h4h5---| x2
|-3-3-3-----3-------------|
|-------5p3---------------|

|-------------------------|
|-------------------------|
|-2-2-2-------------2-h5--| x1
|-------5p2-3--3-h5-------|
|-------------------------|
|-------------------------|

|-------------------------|
|(same as the first part)-|
|-------------------------|
|--------------2-h3h4h5---| x1
|-3-3-3-----3-------------|
|-------5p3---------------|