Misc. Unsigned Bands - Broken Heros - Lies Text Guitar Tab

Learn the song with the online tablature player
The rythem goes down,up,down

--2---222---2-x2--3----333--222--|
--3---323---2-----2----222--222--|
--2---232---2-----3----222--222--|
------------2---------------222--|
----------------------------222--|
---------------------------------|

--------------|
--------------|
--------------|
--3_555_333---| Back to the begining repeat through out song
--5_755_555---|
--5_777_555---|

Keys
slide:__