Misc. Unsigned Bands - Brute Force - Brute Force Text Guitar Tab

Learn the song with the online tablature player
Song Name : Brute Force
 Artist    : Brute Force

INTRO

 Anand
|--------------------------------------------------|----------------------|
|--------------------------------------------------|----------------------|
|--------------------------------------------------|----------------------|
|--------------------------------------------------|----------------------|
|------5h7-------------10p7-------------5h7--------|-3p2---------2h3------|
|--0-0-----0-0-0-0-0-0------0-0-0-0-0-0-----0-0-0-0|-----3-2-3-5----------|
|
|                                                                         |
|Wayne                                              on 3rd time           |
|--------------------------------------------------|----------------------|
|--------------------------------------------------|----------------------|
|--------------------------------------------------|----------------------|
|---2----------------------------------------------|----------------------|
|---2----------------------------------------------|--7p5---------5h7-----|
|---0----------------------------------------------|------7-5-7-9---------|
                                                          *******

 0:27
|------------------------------------------------------------------------|
|------------------------------------------------------------------------|
|------------------------------------------------------------------------|
|------------------------------------------------------------------------|
|--3p2---------2h3--5p3---------3--5h7-----------------------------------|
|------3-2-3-5----------7--5--7------------------------------------------|
|      *******          *******                                          |
|                                                                        |
|                                                                        |
|------------------------------------------------------------------------|
|------------------------------------------------------------------------|
|------------------------------------------------------------------------|
|------------------------------------------------------------------------|
|--7p5---------5h7--9p7---------7-9h10-----------------------------------|
|------7-5-7-9----------10-9-10------------------------------------------|
       *******          *******

 0:29
|------------------------------------------------------------------------|
|------------------------------------------------------------------------|
|------------------------------------------------------------------------|
|--2-2-2-----------2-2-------5-------5-------5-------5-------------------|
|--2-2-2-----------2-2-------5-------5-------5-------5-------------------|
|--0-0-0-0-0--0-0--0-0--0-0--3--0-0--3--0-0--3--0-0--3-------------------|

 0:43                 X3
|----------------------------|--------------------------------------------|
|----------------------------|--------------------------------------------|
|----------------------------|--------------------------------------------|
|----------4-5--5-----5------|--7-----7-----9-----7-5---------------------|
|----------4-5--5-----5------|--7-----7-----9-----7-5---------------------|
|--0-0-0-0-2-3--3-3-3-3-3-3--|--5-5-5-5-5-5-7-7-7-5-3---------------------|
   *******        ***   ***       ***   ***   ***

Chorus

|------------------------------------------------------------------------|
|------------------------------------------------------------------------|
|--9------------------------------------7--------------------------------|
|--9------------------------------------7--------------------------------|
|--7------------------------------------5--------------------------------|
|------------------------------------------------------------------------|
|
|
|
|--------------------------------------------------|----------------------|
|--------------------------------------------------|----------------------|
|--------------------------------------------------|----------------------|
|--------------------------------------------------|----------------------|
|------5h7-------------10p7-------------5h7--------|-7p5---------5h7------|
|--0-0-----0-0-0-0-0-0------0-0-0-0-0-0-----0-0-0-0|-----7-5-7-9----------|

|------------------------------------------------------------------------|
|------------------------------------------------------------------------|
|--5------------------------------------4--------------------------------|
|--5------------------------------------4--------------------------------|
|--3------------------------------------2--------------------------------|
|------------------------------------------------------------------------|
|
|
|
|--------------------------------------------------|----------------------|
|--------------------------------------------------|----------------------|
|--------------------------------------------------|----------------------|
|--------------------------------------------------|----------------------|
|------5h7-------------10p7-------------5h7--------|-7p5---------5h7------|
|--0-0-----0-0-0-0-0-0------0-0-0-0-0-0-----0-0-0-0|-----7-5-7-9----------|

Conventions Used

 h = hammer on

 p = pull off

 * = Palm mute

SOLO NEXT!