Misc. Unsigned Bands - Bucsudal - Peter Szikszai Text Guitar Tab

Learn the song with the online tablature player
D-re hangolj! Jo szorakozast

Intro+Verse:

e|-----0-----|-----0-----|-----3----|-----0----|-----0----|
B|---3--3-3--|---3--3-3--|---3--3-3-|---3--3-3-|---3--3-3-|
G|--0-0--0---|--2-2--2---|--4-4--4--|--2-2--0--|--0-0--0--|
D|-2---------|-4---------|-5--------|-4--------|-2--------|
A|-----------|-----------|----------|----------|----------|
E|-----------|-----------|----------|----------|----------|

e|-----------|-----------|-----------|----|
B|-----0-----|-----0-----|-----0-----|-0--|
G|---0--0-0--|---0--0-0--|---2--2-2--|----|
D|--4-4--4---|--2-2--2---|--1-1--1---|----|
A|-5---------|-3---------|-2---------|----|
E|-----------|-----------|-----------|----|

Verse
Elmúlt és nem jön vissza már
sok emlék bennünk él tovább
de hidd el jó volt minden perc
a szivünk nem felejt

Verse2
és most is együtt énekelünk
egy dalba folytva lélegzetünk
a szivünk dobban de a dal megy tovább
vajon még együtt leszünk?

Reffrain:

   C     D         G                       Em
a búcsú fáj hiszen egység voltunk és most széthull minden
   C     D     G                   Em
az út lezárult mindennek vége mert tovább kell lépnünk
   C     D     A9
a búcsú fáj hisz nincs tovább

Verse3
a régi társak elhagynak
az útjaink végleg elválnak
egy álom összetört bennünk
 talán mégis együtt leszünk

Verse4
még ha egymástól messze is énekelünk
tudni fogjuk hogy egységként lélegzünk
hogy ha baj van mi ott vagyunk egymásért
 ez a csapat mit nem feledünk

   C     D          G                      Em
a búcsú fáj hiszen egység voltunk és most szethull minden
   C     D      G                   Em
az út lezárult midnennek vége mert tovább kell lépnünk
   C     D      G          Em
a búcsú fáj hisz nincs tovább (hisz nincs tovább)
   C     D     G  Em
a búcsú fáj  mmmmmmmmm

  C      D      Em
a búcsú fáj hisz nincs tovább