Misc. Unsigned Bands - Burn The Survivors - Agness Text Guitar Tab

Learn the song with the online tablature player
                             AGNESS - Burn The Survivors

|---------------------------------------------------------------------------|
|---------------------------------------------------------------------------|
|---------------------------------------------------------------------------|
|---------------------------------------------------------------------------|
|--000000-000000-000000-00-00------x4---------------------------------------|
|--000000-000000-000000-00-00-----------------------------------------------|

|---------------------------------------------------------------------------|
|---------------------------------------------------------------------------|
|---------------------------------------------------------------------------|
|----------------------------------------------------------x5---------------|
|--00-00-00-00-00-00--5h3-0-00-00-00--3~------------------------------------|
|--00-00-00-00-00-00-------0-00-00-00---------------------------------------|

|---------------------------------------------------------------------
|---99999999-10-9999-10-9999-10-9999-12-99999999----------------------
|---------------------------------------------------------------------
|---------------------------------------------------------------------
|---------------------------------------------------------------------
|---------------------------------------------------------------------

 ---------------------------------------------x6--------------------|
 ---10-9999-10-9999-10-9999-12--------------------------------------|
 -------------------------------------------------------------------|
 -------------------------------------------------------------------|
 -------------------------------------------------------------------|
 -------------------------------------------------------------------|

|--------------------2222-------------------3333----------------------------|
|---2222--3333-----------2222--3333-----------------------------------------|
|---------------------------------------------------------------------------|
|-------------------------------------------------------x3------------------|
|---------------------------------------------------------------------------|
|---------------------------------------------------------------------------|

|------------------------------------------------------------------------------------------|
|------------------------------------------------------------------------------------------|
|-----------------------x4-------------------------x4--------------------------x8----------|
|---------5-6—8-7---------------5-6---8-7----------------5-6----8-7------------------------|
|----5-6------------8-7-----5-6-------------8-7-------5-6--------------8-7-----------------|
|------------------------------------------------------------------------------------------|
          /                       /      /                           /          /
  /
           Palm mute                  no mute                       fast alternate picking

| /  slide up
| \  slide down
| h  hammer-on
| p  pull-off
| ~  vibrato
| +  harmonic
| x  Mute note