Misc. Unsigned Bands - Buttwiser - Duck And Cover Text Guitar Tab

Learn song with the online tabulature player
ok this is a band i no, they live near me (i think and hope) there called "Buttwiser"
and they rule, this is there first song from there debut album "Lock up your Mothers"
and its called "Duck and Cover"
here we go!

intro 1    just do in pattern played
e|-------------------|
B|-------------------|
G|--x---x-x--x--x--x-|
D|--x---x-x--x--x--x-|
A|--x---x-x--x--x--x-|
E|--x---x-x--x--x--x-|

intro 2
e|------------------------------------------------------------|
B|------------------------------------------------------------|
G|------------------------------------------------------------|
D|------------------------------------------------------------|
A|------------------------------------------------------------|
E|--0-5-5-8-8-3-3-3-5-5-8-8-3-3-3-5-5-8-8-3-3-3-0-0-0-3-3-3-3-|

e|------------------------------------------------------------------|
B|------------------------------------------------------------------|
G|------------------------------------------------------------------|2x
D|----7-7-10-10-5-5-5-7-7-10-10-5-5-5-7-7-10-10-5-5-5-2-2-2-5-5-5-5-|
A|----7-7-10-10-5-5-5-7-7-10-10-5-5-5-7-7-10-10-5-5-5-2-2-2-5-5-5-5-|
E|--0-5-5-8--8--3-3-3-5-5-8--8--3-3-3-5-5-8--8--3-3-3-0-0-0-3-3-3-3-|

Verse
e|-----------------------------------|
B|-----------------------------------|
G|-----------------------------------|4x
D|---------------------------9-9-----|
A|---------------------------9-9-----|
E|-4-4-4-4-4-4-4-4-4-4-4-4-4-7-7-----|
PM . . . . . . . . . . . . . 

Chorus
e|-----------------------------------|   e|-------------|
B|-----------------------------------|   B|-------------|
G|-----------------------------------|4x G|-------------|
D|-2-2-5-5-5--7-7-7-7-10-10-10-5-5-5-|   D|-2-2-2-5-5-5-|
A|-2-2-5-5-5--7-7-7-7-10-10-10-5-5-5-|   A|-2-2-2-5-5-5-|
E|-0-0-3-3-3--5-5-5-5-8--8--8--3-3-3-|   E|-0-0-0-3-3-3-|

Verse
Chorus

Bridge intro
e|-------------------------------------------------------------------------|
B|-------------------------------------------------------------------------|
G|-------------------------------------------------------------------------|
D|--2~---------------2~------------2~------------------2~-2222222222222222-|
A|--2~---------------2~------------2~------------------2~-2222222222222222-|
E|--0~---------------0~------------0~------------------0~-0000000000000000-|
PM                                                        ................

Bridge     w/wierd effect
e|------------------------|    then the gtr does this : A|-555555555555\--| 
B|------------------------|    
G|------------------------|4x
D|------------------------|
A|------------------------|   <<< then do that in power chords
E|-0000003333333555555555-|

then chorus again and thats it