Misc. Unsigned Bands - Bypass - National Anthem Text Guitar Tab

Learn the song with the online tablature player
My version of "Star Spangled Banner"

E|---------------3----7-5-3-----------------7-5-3-2--------3-3---------------------|
B|--3---------3--------------0-2-3----3-3-------------3-5-------3------------------|
G|----4----4----------------------------------------------------------4------------|
D|-------5---------------------------------------------------------------5---------|
A|---------------------------------------------------------------------------------|
E|---------------------------------------------------------------------------------|
2x

E|-7--7-7-8--10-10--8-7--5-7-8--8---8-7--5-3-2-------3-3---------------------------|
B|-------------------------------------------------------3-5-------0-2-3-----------|
G|---------------------------------------------------------------------------------|
D|---------------------------------------------------------------------------------|
A|---------------------------------------------------------------------------------|
E|---------------------------------------------------------------------------------|

E|------3-3-3--2--0-0-0--5-7--5-3--2-----------5-7-8--10-------5-7-8--5--3-----3---|
B|---3-3-3-3--2--0-0-0--5-7--5-3--2-----------5-7-8--10-------5-7-8--5--3----------|
G|---2-------------------------------3-3-3----------------3------------------------|
D|-----------------------------------3-3-3----------------3------------------------|
A|---------------------------------------------------------------------------------|
E|---------------------------------------------------------------------------------|

Audio coming shortly