Misc. Unsigned Bands - Cado - Spanish Romance Text Guitar Tab

Learn the song with the online tablature player
e--7--7--7--7--5--3--3--2--0--0--3--7--
B---0--0--0--0--0--0--0--0--0--0--0--0-
G----0--0--0--0--0--0--0--0--0--0--0--0
D--------------------------------------
A--------------------------------------
E--0--------0--------0-------0---------

e--12--12--12--12--10--8--8--7--5--5--7--8--
B---0---0---0---0---0---0--0--0--0--0--0--0-
G----0---0---0---0---0---0--0--0--0--0--0--0
D-------------------------------------------
A-------------------------------------------
E--0-----------0----------5--------5--------

e--7--8--7--11--8--7--7--5--3--3--2--0--
B---0--0--0--0---0--0--0--0--0--0--0--0-
G----0--0--0--0---0--0--0--0--0--0--0--0
D---------------------------------------
A---------------------------------------
E--7---------7--------0--------0--------

e--2--2--2--2--3--2--0------------------
B---0--0--0--0--0--0--0--0--0-----------
G----0--0--0--0--0--0--0--0--0----------
D---------------------------------------
A--2--------2-----------2---------------
E--------------------0----3--0----------