Misc. Unsigned Bands - Camerawalls - Lord Of The Flies Text Guitar Tab

Learn the song with the online tablature player
LORD OF THE FLIES by Camerawalls

INTRO

guitar 1: F#m--Bm-C#

guitar 2:

e|---------------7-7/9--------------------|
B|-9h10p9p7h9-10-------9p7-9--------------|
G|---------------------------9h11---------|
D|--------------------------------7/9-11--|
A|----------------------------------------|
E|----------------------------------------|

e|-5-4h5-5-5-44h5-5--7-5h7-7-7--4h5p4--|
B|-5-5-5-5-5-55-5-5--7-7-7-7-7--5------|
G|-------------------------------------| 2x
D|-------------------------------------|
A|-------------------------------------|
E|-------------------------------------|

VERSE
 F#m                    Bm               C#             F#m
 Lord of the flies, how many will suffer with your lies
 F#m                Bm                  C#              F#m
 Lord of the flies, everyone sees right through your disguise
   Bm                             F#m
 A million watering eyes lives to tell the tales
Bm                            F#m
 of how ambition burned their sails

REFRAIN
A             D                A               D
 Get off that high halls and remove that paper crown
                Bm                    E
 coz' there's a sense in putting your self down
                Bm                    E
 coz' there's a sense in putting your self down
              Bm                      E
 coz' there's defense in pulling your simple little life down

etc...

NITRAM
05-11-10
5:08 PM