Misc. Unsigned Bands - Camille B - Those Damn Scene Kids Text Guitar Tab

Learn the song with the online tablature player
                        those damn scene kids - camille

intro
e|-----------------------------------|
B|-----------------------------------|
G|-----------------------------------|
D|--2--2-----------------------------| x2
A|-3--3-----2-2-----3-3-----3-3-3-3--|
E|-------0h3-3---3s5-5---0h1-1-1-1---|

verse i
palm mute)
e|---------------------------------------------------------------|
B|---------------------------------------------------------------|
G|---------------------------------------------------------------|
D|--2-2-slap---------------slap-------------slap-----------------| x5
A|-3-3--the-----------2-2--the---------3-3--the---------3-3-3-3--|
E|------strings----0h3-3---strings--3/5-5---strings--0h1-1-1-1---|

chorus
e|-xxxx--x-x-x---xxxx--x-x-x---xxxx--x-x-x---xxxx--x-x-x--|
B|-xxxx--x-x-x---xxxx--x-x-x---xxxx--x-x-x---xxxx--x-x-x--|
G|-0000--0-0-0---xxxx--x-x-x---xxxx--x-x-x---xxxx--x-x-x--|
D|-2222--2-2-2---0000--0-0-0---2222--2-2-2---2222--2-2-2--| x2
A|-3333--3-3-3---2222--2-2-2---3333--3-3-3---3333--3-3-3--|
E|-xxxx--x-x-x---3333--3-3-3---5555--5-5-5---1111--1-1-1--|
    ^ ^  ^   ^    ^ ^  ^   ^    ^ ^  ^   ^    ^ ^  ^   ^

verse ii
palm mute)
e|---------------------------------------------------------------|
B|---------------------------------------------------------------|
G|---------------------------------------------------------------|
D|--2-2-slap---------------slap-------------slap-----------------| x3
A|-3-3--the-----------2-2--the---------3-3--the---------3-3-3-3--|
E|------strings----0h3-3---strings--3/5-5---strings--0h1-1-1-1---|

solo
e|----------------------------------------|
B|----------------------------------------|
G|---0--0--0------------------------------|
D|--2--2--2---0--0--0---2--2--2--2--2--2--|
A|-3--3--3---2--2--2---3--3--3--3--3--3---|
E|----------3--3--3-/-5--5--5--1--1--1----|

e|------------------------------------------|
B|------------------------------------------|
G|---0--0--0---0--0--0---2--2--2------------|
D|--2--2--2------------------------2--2--2--|
A|-3--3--3---2--2--2---3--3--3---3--3--3----|
E|----------3--3--3-/-5--5--5---1--1--1-----|

verse iii
palm mute)
e|---------------------------------------------------------------|
B|---------------------------------------------------------------|
G|---------------------------------------------------------------|
D|--2-2-slap---------------slap-------------slap-----------------|
A|-3-3--the-----------2-2--the---------3-3--the---------3-3-3-3--|
E|------strings----0h3-3---strings--3/5-5---strings--0h1-1-1-1---|

e|-----------------------------------------------------------|
B|-----------------------------------------------------------|
G|-----------------------------------------------------------|
D|--2-2-slap---------------slap-------------slap-------------|
A|-3-3--the-----------2-2--the---------3-3--the---------3-3--|
E|------strings----0h3-3---strings--3/5-5---strings--0h1--1--|

solo
e|----------------------------------------|
B|----------------------------------------|
G|---0--0--0------------------------------|
D|--2--2--2---0--0--0---2--2--2--2--2--2--|
A|-3--3--3---2--2--2---3--3--3--3--3--3---|
E|----------3--3--3-/-5--5--5--1--1--1----|

e|------------------------------------------|
B|------------------------------------------|
G|---0--0--0---0--0--0---2--2--2------------|
D|--2--2--2------------------------2--2--2--|
A|-3--3--3---2--2--2---3--3--3---3--3--3----|
E|----------3--3--3-/-5--5--5---1--1--1-----|

chorus
e|-xxxx--x-x-x---xxxx--x-x-x---xxxx--x-x-x---x-x-x-x--|
B|-xxxx--x-x-x---xxxx--x-x-x---xxxx--x-x-x---x-x-x-x--|
G|-0000--0-0-0---xxxx--x-x-x---xxxx--x-x-x---x-x-x-x--|
D|-2222--2-2-2---0000--0-0-0---2222--2-2-2---2-2-2-2--| x4
A|-3333--3-3-3---2222--2-2-2---3333--3-3-3---3-3-3-3--|
E|-xxxx--x-x-x---3333--3-3-3---5555--5-5-5---1-1-1-1--|
    ^ ^  ^   ^    ^ ^  ^   ^    ^ ^  ^   ^

| /  slide up
| \  slide down
| h  hammer-on
| p  pull-off
| ~  vibrato
| +  harmonic
| x  Mute note