Misc. Unsigned Bands - Carly Comando - Everyday Text Guitar Tab

Learn the song with the online tablature player
                             Everyday - Carly Comando

First tab - Here is how I play it. It plays well on the guitar, especially fingerpicked.

   Am
e--------------------                  e-----------------|
B------5-----5-------                  B-----------------|
G--------5-----5-----   OR JUST THIS   G------5---5---5--|   Play for a bit
D----7-----7-----7---                  D----7---7---7----|
A--------------------                  A-----------------|
E--------------------                  E-----------------|

                        Then we move on to...

     F/A
e--------------------------------------|
B------------6----------------6--------|
G------5---5---5---5----5---5---5---5--|     Only play what's shown once
D----7---7-------7----7---7-------7----|
A--------------------------------------|
E--------------------------------------|

                         And then of course...
    C#m7
e|-----------------------------------------------------------------------|
B|--5-----5-5-----5-5-----5-5-----5-5-5-----5-5-----5-5-----5-5-----5-5--|
G|----5-------5-------5-------5---------4-------4-------4-------4--------|
D|--5---5---5---5---5---5---5---5-----6---6---6---6---6---6---6---6---6--|
A|-----------------------------------------------------------------------|
E|-----------------------------------------------------------------------|

This is all I play for this song, I'm sure there is more to it, but I like the sound of
 Let me know what you think