Misc. Unsigned Bands - Catastrophic Clizbomb - Thunder Text Guitar Tab

Learn the song with the online tablature player
                             Thunder - Catastrophic Clizbomb

So i didnt have to keep retyping the same thing over and over I broke the song
up into different riffs. I will have the recording of these solos up soon in
my profile. Also the outro solo was not tabbed because it is improv.

Song Makeup:

Intro Solo

     A
repeat 1)
                     B

Main solo
                     C

     D
repeat 1)

     E
repeat 1)

     F
repeat 1)
                     G

     B
repeat 1)

     D
repeat 1)
                Riff I
                     A
                Riff J

Intro Solo

     A
D|-------12h14-------12-14b15b14--------12h14-141414-12--12------------------|
A|-12h15-------12h15-------------12h15----------------15---151415-14121412---|
F|------------------------------------------------------------------------14-|
C|---------------------------------------------------------------------------|
G|---------------------------------------------------------------------------|
C|---------------------------------------------------------------------------|

     B
D|-------12h14-------12-14b15-14-12------------------------------------------|
A|-12h15-------12h15---------------1515-14-15-14-12----12-14-14b15-14p12-12--|
F|--------------------------------------------------14-----------------------|
C|---------------------------------------------------------------------------|
G|---------------------------------------------------------------------------|
C|---------------------------------------------------------------------------|

Main solo

     C
D|-t17p15p14p12-t17p15p14p12-t17p15p14p12-t17p15p14p12-t17p15p14p12----------|
A|---------------------------------------------------------------------------|
F|---------------------------------------------------------------------------|
C|---------------------------------------------------------------------------|
G|---------------------------------------------------------------------------|
C|---------------------------------------------------------------------------|

D|-t19p15p14p12-t20p15p14p12-t22p15p14p12-t20p15p14p12-t22p15p14p12----------|
A|---------------------------------------------------------------------------|
F|---------------------------------------------------------------------------|
C|---------------------------------------------------------------------------|
G|---------------------------------------------------------------------------|
C|---------------------------------------------------------------------------|

D|-t24p15p14p12-t22p15p14p12-t20p15p14p12-t22p15p14p12-t20p15p14p12----------|
A|---------------------------------------------------------------------------|
F|---------------------------------------------------------------------------|
C|---------------------------------------------------------------------------|
G|---------------------------------------------------------------------------|
C|---------------------------------------------------------------------------|

D|-t19p15p14p12-t20p15p14p12-t19p15p14p12-t17p15p14p12-t19p15p14p12----------|
A|---------------------------------------------------------------------------|
F|---------------------------------------------------------------------------|
C|---------------------------------------------------------------------------|
G|---------------------------------------------------------------------------|
C|---------------------------------------------------------------------------|

D|-t17p15p14p12-t17p15p14p12h14h15-------------------------------------------|
A|---------------------------------------------------------------------------|
F|---------------------------------------------------------------------------|
C|---------------------------------------------------------------------------|
G|---------------------------------------------------------------------------|
C|---------------------------------------------------------------------------|

     D
D|---------------------------------------------------------------------------|
A|---------------------------------------------------------------------------|
F|-14b15-12----12-14b15-12----12-14b15-12----12-14b15-12----12---------------|
C|----------14-------------14-------------14-------------14------------------|
G|---------------------------------------------------------------------------|
C|---------------------------------------------------------------------------|

     E
D|---------------------------------------------------------------------------|
A|-------1212121212-------1212121212-------1212121212-------1212121212-------|
F|-14b16------------14b16------------14b16------------14b16------------------|
C|---------------------------------------------------------------------------|
G|---------------------------------------------------------------------------|
C|---------------------------------------------------------------------------|

     F
D|---------------------------------------------------------------------------|
A|-15b17-15-12--15b17-15-12--15b17-15-12--15b17-15-12------------------------|
F|---------------------------------------------------------------------------|
C|---------------------------------------------------------------------------|
G|---------------------------------------------------------------------------|
C|---------------------------------------------------------------------------|

     G
D|---------------------------------------------------------------------------|
A|-/15-15b17-15b17-15b17--15b17-15b17-15b17----------------------------------|
F|---------------------------------------------------------------------------|
C|---------------------------------------------------------------------------|
G|---------------------------------------------------------------------------|
C|---------------------------------------------------------------------------|

     B
D|-15-14-12----------15-14-12----------15-14-12----------15-14-12------------|
A|----------15-14-12----------15-14-12----------15-14-12----------15-14-12---|
F|---------------------------------------------------------------------------|
C|---------------------------------------------------------------------------|
G|---------------------------------------------------------------------------|
C|---------------------------------------------------------------------------|

2nd time end with this
D|-15b17---------------------------------------------------------------------|
A|---------------------------------------------------------------------------|
F|---------------------------------------------------------------------------|
C|---------------------------------------------------------------------------|
G|---------------------------------------------------------------------------|
C|---------------------------------------------------------------------------|

Riff I
D|---------------------------------------------------------------------------|
A|-----------------12121215-15b17--------------------------------------------|
F|--121212--141414-----------------------------------------------------------|
C|---------------------------------------------------------------------------|
G|---------------------------------------------------------------------------|
C|---------------------------------------------------------------------------|

Riff J
D|---------------------------------------------------------------------------|
A|--121212-------------------------------------------------------------------|
F|---------141214-12-11-12-11--11--------------------------------------------|
C|---------------------------14--14-12-141414-12-11-12-11-9-11-9-7-9-7-5-----|
G|---------------------------------------------------------------------------|
C|---------------------------------------------------------------------------|

D|---------------------------------------------------------------------------|
A|---------------------------------------------------------------------------|
F|---------------------------------------------------------------------------|
C|--777-545-424-2-0-2-0---4--------------------------------------------------|
G|------------------------4--------------------------------------------------|
C|------------------------4--------------------------------------------------|

| /  slide up
| \  slide down
| h  hammer-on
| p  pull-off
| ~  vibrato
| +  harmonic
| x  Mute note
| b  Bend note
| t  Tap with edge of Pick