Misc. Unsigned Bands - Caught In The Crossfire - Draw The Line Text Guitar Tab

Learn song with the online tabulature player
Piano part:
E-----------------------------------------------------------------------|
B-------6----------6-----------6----------6-----------6----------6------|
G-----7---7~~----7---7-------7---7~~----7---7-------7---7~~----7---7----|
D---7----------7-------7~--7----------7-------7~--7----------7-------7~-|
A-5----------5-----------0----------0-----------4----------4------------|
D-----------------------------------------------------------------------|
  2x_____________________2x_____________________2x_____________________

E-------------------------|
B-------6----------6------|
G-----7---7~~----7---7----|
D---7----------7-------7~-|
A-6----------6------------|
D-------------------------|
  2x_____________________

Guitar 1:
E-------------------------------------------------------------------|
B-------------------------------------------------------------------|
G-------------------------------------------------------------------|
D-------------------------------------------------------------------|
A-----7-------7h8-----9h10-----5h6-----7-------9h10-----7h8-----5h6-|
D-0-0---0-0-0-----0-0------0-0-----0-0---0-0-0------0-0-----0-0-----|