Misc. Unsigned Bands - Celeritas - Road To Hell Text Guitar Tab

Learn the song with the online tablature player
Ok this is how it goes.

Remember Drop D!!!

Verse Riff
e|-------------------------------------------------------|
B|-------------------------------------------------------|
G|-------------------------------------------------------|
D|-5--5---5-5--5-5--3--1--1---1-1--1-1--3----------------|    AND SO ON...
A|-5--5---5-5--5-5--3--1--1---1-1--1-1--3----------------|
D|-5--5---5-5--5-5--3--1--1---1-1--1-1--3----------------|

Chorus Riff
e|-----------------------------------------------------------------------------|
B|-----------------------------------------------------------------------------|
G|-----------------------------------------------------------------------------|
D|-0-0--3---0--3--0-----0-3--0--3--0--6--5--3--0-------------------------------|
A|-0-0--3---0--3--0-----0-3--0--3--0--6--5--3--0-------------------------------|
D|-0-0--3---0--3--0-----0-3--0--3--0--6--5--3--0-------------------------------|

e|-----------------------------------------------------------------------------|
B|-----------------------------------------------------------------------------|
G|-----------------------------------------------------------------------------|
D|-0-0--3---0--3--0-----0-3--0--3--0--6--5--3--0-------------------------------|
A|-0-0--3---0--3--0-----0-3--0--3--0--6--5--3--0-------------------------------|
D|-0-0--3---0--3--0-----0-3--0--3--0--6--5--3--0-------------------------------|

e|-----------------------------------------------------------------------------|
B|-----------------------------------------------------------------------------|
G|-----------------------------------------------------------------------------|
D|-0-0--3---0--3--0-----0-3--0--3--0--6--5--3--0-------------------------------|
A|-0-0--3---0--3--0-----0-3--0--3--0--6--5--3--0-------------------------------|
D|-0-0--3---0--3--0-----0-3--0--3--0--6--5--3--0-------------------------------|

e|-----------------------------------------------------------------------------|
B|-----------------------------------------------------------------------------|
G|-----------------------------------------------------------------------------|
D|-0-0--3---0--3--0-----0-3--0--3--0--6------5-----3---------------------------|
A|-0-0--3---0--3--0-----0-3--0--3--0--6------5-----3---------------------------|
D|-0-0--3---0--3--0-----0-3--0--3--0--6------5-----3---------------------------|

Break Down/Drum Solo
e|-----------------------------------------------------------------------------|
B|-----------------------------------------------------------------------------|
G|-----------------------------------------------------------------------------|
D|0--------------0-------------0-----------0-----------------------------------|
A|0--------------0-------------0-----------0-----------------------------------|
D|0--------------0-------------0-----------0-----------------------------------|

| /  slide up
| \  slide down
| h  hammer-on
| p  pull-off
| ~  vibrato
| +  harmonic
| x  Mute note

There it is. Pretty Simple.