Misc. Unsigned Bands - Cella Kotak - Schecter C-1 Plus Text Guitar Tab

Learn song with the online tabulature player
Schecter C-1 Plus by Cella Kotak (Indonesia's Schecter Artist)
Drop D Tuning (DADGBE)
Delay
Tabbed by daneboyzzz

E ----------------------------------------------|
B ----8-7-------------------8-7-----------------|
G --------7-----10----9---------7-----10----9---| x2
D ----------------------------------------------|
A ----------8-----------8---------8-----------8-|
D --0---------8----10-----0---------8----10-----|

E ----------------------------------------------|
B ----10----8-10---11----10-8-10---10----8-10---|
G -------10-----------10--------------10--------|
D ----------------------------------------------|
A ----------------------------------------------|
D --0------------0---------------0--------------|

E ----------------------------------------------|
B ----11----10-8-7------------------------------|
G -------10-------------------------------------|
D ----------------------------------------------|
A ----------------------------------------------|
D --0-------------------------------------------|