Misc. Unsigned Bands - Certified Dead - The Awakening Text Guitar Tab

Learn the song with the online tablature player
here it is my original song made this year (2009) im happy with it but am yet to add a
to it if anyone has any ideas let me know

intro/chorus-4x
e-----------------------------------------------------------------|
B-----------------------------------------------------------------|
G-----------------------------------------------------------------|
D-2--2-------2--2--5/7--------------------------------------------|
A-0--0---3-2-0--0--3/5--------------------------------------------|
D--00-00-3-2--00-00-----------------------------------------------|
PM .. ..      .. ..

verse
4x
e------------------------------------------------------------------|
B------------------------------------------------------------------|
G------------------------------------------------------------------|
D--7--7---7/8-7--7---7/8--7--7-------------------------------------|
A--5--5---5/6-5--5---5/6--5--5--03h5-------------------------------|
D- -00--00-----00-00-------00-00-----------------------------------|
PM  ..  ..     .. ..       .. ..

Pre-Chorus
strum each casually 5 times
e------------------------------------------------------------------------|
B------------------------------------------------------------------------|
G------------------------------------------------------------------------|
D--2----5----7----2--------------2-----5/7-------------------------------|
A--0----3----5----0----3----2----0-----3/5-------------------------------|
D----------------------3----2--------------------------------------------|

chorus
same as intro 2x

outro/ending-guitar 2 plays pre chorus and lead plays with re-verb..
e-----------------------------------------------------------------|
B-----------------------------------------------------------------|
G--2/10-9---2/10-9-------2/10-9-----------------------------------|
D--------10-------10/7/10------10/5/7--7-5------------------------|
A-----------------------------------------------------------------|
D-----------------------------------------------------------------|