Misc. Unsigned Bands - Chad Ramsey - Galaxy Text Guitar Tab

Learn song with the online tabulature player
E|------------------------------------|
B|------------------------------------|
G|------------------------------------|
D|----------14--15--------------------|
A|----14 15---------------------------|      Repeat 5 Times
E|-12--------------13/12--------------|

E|------------------------------------|
B|------------------------------------|
G|------------------------------------|
D|-9--9----7------5----3--------------|
A|-9--9----7------5----3--------------|
E|-9--9pm--7--pm--5pm--3pm------------|

E|----------------------------------------------------12-|
B|-------------------------------------------12--14------|
G|-------------------------------11--14--12--------------|
D|--------------------14/11--12--------------------------|
A|----------14/11--12------------------------------------|
E|--12--14-----------------------------------------------|


I like this played with Reverb or Chorus!